ISO-10303-21;
HEADER;
FILE_DESCRIPTION (( 'STEP AP203' ),
    '1' );
FILE_NAME ('678b.STEP',
    '2022-07-07T10:00:00',
    ( '' ),
    ( '' ),
    'SwSTEP 2.0',
    'SolidWorks 2019',
    '' );
FILE_SCHEMA (( 'CONFIG_CONTROL_DESIGN' ));
ENDSEC;

DATA;
#1 = ORIENTED_EDGE ( 'NONE', *, *, #76, .T. ) ;
#2 = LOCAL_TIME ( 12, 0, 0.000000000000000000, #246 ) ;
#3 = VERTEX_POINT ( 'NONE', #172 ) ;
#4 = CIRCLE ( 'NONE', #201, 7.000000000000000000 ) ;
#5 = PERSON_AND_ORGANIZATION_ROLE ( 'creator' ) ;
#6 = PERSON_AND_ORGANIZATION ( #279, #64 ) ;
#7 = LOCAL_TIME ( 12, 0, 0.000000000000000000, #135 ) ;
#8 = CYLINDRICAL_SURFACE ( 'NONE', #49, 4.099999999999999645 ) ;
#9 = DATE_TIME_ROLE ( 'classification_date' ) ;
#10 = CARTESIAN_POINT ( 'NONE',  ( 0.000000000000000000, 0.000000000000000000, 1004.999999999999886 ) ) ;
#11 = CALENDAR_DATE ( 2022, 7, 7 ) ;
#12 = CIRCLE ( 'NONE', #93, 4.099999999999999645 ) ;
#13 = APPLICATION_PROTOCOL_DEFINITION ( 'international standard', 'config_control_design', 1994, #53 ) ;
#14 = DATE_AND_TIME ( #157, #147 ) ;
#15 = DIRECTION ( 'NONE',  ( -0.000000000000000000, -0.000000000000000000, -1.000000000000000000 ) ) ;
#16 = ADVANCED_FACE ( 'NONE', ( #192 ), #211, .F. ) ;
#17 = CARTESIAN_POINT ( 'NONE',  ( 0.000000000000000000, 0.000000000000000000, 5.199999999999982414 ) ) ;
#18 = ORIENTED_EDGE ( 'NONE', *, *, #158, .T. ) ;
#19 = DIRECTION ( 'NONE',  ( -0.000000000000000000, -0.000000000000000000, -1.000000000000000000 ) ) ;
#20 = PRODUCT_RELATED_PRODUCT_CATEGORY ( 'detail', '', ( #121 ) ) ;
#21 = DIRECTION ( 'NONE',  ( 1.000000000000000000, 0.000000000000000000, 0.000000000000000000 ) ) ;
#22 = APPROVAL_PERSON_ORGANIZATION ( #137, #242, #155 ) ;
#23 = DIRECTION ( 'NONE',  ( 1.000000000000000000, 0.000000000000000000, 0.000000000000000000 ) ) ;
#24 = DIRECTION ( 'NONE',  ( -0.000000000000000000, -0.000000000000000000, -1.000000000000000000 ) ) ;
#25 = CLOSED_SHELL ( 'NONE', ( #16, #295, #26, #231, #209, #189, #270, #283, #116 ) ) ;
#26 = ADVANCED_FACE ( 'NONE', ( #204 ), #185, .T. ) ;
#27 = CARTESIAN_POINT ( 'NONE',  ( 4.099999999999999645, 5.021051876504147385E-16, 1004.999999999999886 ) ) ;
#28 = CC_DESIGN_PERSON_AND_ORGANIZATION_ASSIGNMENT ( #243, #5, ( #80 ) ) ;
#29 = AXIS2_PLACEMENT_3D ( 'NONE', #187, #142, #92 ) ;
#30 = EDGE_LOOP ( 'NONE', ( #280, #130, #52, #237 ) ) ;
#31 = VERTEX_POINT ( 'NONE', #162 ) ;
#32 = CARTESIAN_POINT ( 'NONE',  ( 0.000000000000000000, 0.000000000000000000, 5.199999999999982414 ) ) ;
#33 = EDGE_LOOP ( 'NONE', ( #72, #262 ) ) ;
#34 =( LENGTH_UNIT ( ) NAMED_UNIT ( * ) SI_UNIT ( .MILLI., .METRE. ) );
#35 = PERSON_AND_ORGANIZATION ( #279, #64 ) ;
#36 = DIRECTION ( 'NONE',  ( -1.000000000000000000, 0.000000000000000000, 0.000000000000000000 ) ) ;
#37 = PERSON_AND_ORGANIZATION ( #279, #64 ) ;
#38 = DIRECTION ( 'NONE',  ( 0.000000000000000000, 0.000000000000000000, 1.000000000000000000 ) ) ;
#39 = AXIS2_PLACEMENT_3D ( 'NONE', #111, #40, #113 ) ;
#40 = DIRECTION ( 'NONE',  ( 0.000000000000000000, -1.000000000000000000, 0.000000000000000000 ) ) ;
#41 = DIRECTION ( 'NONE',  ( 0.000000000000000000, 0.000000000000000000, 1.000000000000000000 ) ) ;
#42 = DIRECTION ( 'NONE',  ( 0.000000000000000000, 0.000000000000000000, 1.000000000000000000 ) ) ;
#43 = PLANE ( 'NONE',  #173 ) ;
#44 = AXIS2_PLACEMENT_3D ( 'NONE', #233, #123, #215 ) ;
#45 = DIRECTION ( 'NONE',  ( 1.000000000000000000, 0.000000000000000000, -0.000000000000000000 ) ) ;
#46 = EDGE_CURVE ( 'NONE', #115, #216, #299, .T. ) ;
#47 = DIRECTION ( 'NONE',  ( 0.000000000000000000, 0.000000000000000000, 1.000000000000000000 ) ) ;
#48 = AXIS2_PLACEMENT_3D ( 'NONE', #278, #71, #190 ) ;
#49 = AXIS2_PLACEMENT_3D ( 'NONE', #58, #199, #182 ) ;
#50 = ORIENTED_EDGE ( 'NONE', *, *, #181, .F. ) ;
#51 = ORIENTED_EDGE ( 'NONE', *, *, #100, .F. ) ;
#52 = ORIENTED_EDGE ( 'NONE', *, *, #221, .T. ) ;
#53 = APPLICATION_CONTEXT ( 'configuration controlled 3d designs of mechanical parts and assemblies' ) ;
#54 = ORIENTED_EDGE ( 'NONE', *, *, #168, .F. ) ;
#55 = PERSON_AND_ORGANIZATION ( #279, #64 ) ;
#56 = CALENDAR_DATE ( 2022, 7, 7 ) ;
#57 = EDGE_CURVE ( 'NONE', #287, #240, #234, .T. ) ;
#58 = CARTESIAN_POINT ( 'NONE',  ( 0.000000000000000000, 0.000000000000000000, 1004.999999999999886 ) ) ;
#59 = PERSON_AND_ORGANIZATION_ROLE ( 'creator' ) ;
#60 = PERSON_AND_ORGANIZATION_ROLE ( 'design_owner' ) ;
#61 = APPROVAL_STATUS ( 'not_yet_approved' ) ;
#62 = DIRECTION ( 'NONE',  ( 0.000000000000000000, 0.000000000000000000, 1.000000000000000000 ) ) ;
#63 = DIRECTION ( 'NONE',  ( -0.000000000000000000, -0.000000000000000000, -1.000000000000000000 ) ) ;
#64 = ORGANIZATION ( 'NEURÈENÝ', 'NEURÈENÝ', '' ) ;
#65 = DIRECTION ( 'NONE',  ( 1.000000000000000000, 0.000000000000000000, 0.000000000000000000 ) ) ;
#66 = CIRCLE ( 'NONE', #75, 4.099999999999999645 ) ;
#67 = DIRECTION ( 'NONE',  ( 0.000000000000000000, 0.000000000000000000, 1.000000000000000000 ) ) ;
#68 = UNCERTAINTY_MEASURE_WITH_UNIT (LENGTH_MEASURE( 1.000000000000000082E-05 ), #34, 'distance_accuracy_value', 'NONE');
#69 = EDGE_CURVE ( 'NONE', #115, #287, #139, .T. ) ;
#70 = FACE_OUTER_BOUND ( 'NONE', #151, .T. ) ;
#71 = DIRECTION ( 'NONE',  ( 0.000000000000000000, 0.000000000000000000, 1.000000000000000000 ) ) ;
#72 = ORIENTED_EDGE ( 'NONE', *, *, #127, .F. ) ;
#73 = ORIENTED_EDGE ( 'NONE', *, *, #140, .T. ) ;
#74 = ORIENTED_EDGE ( 'NONE', *, *, #57, .F. ) ;
#75 = AXIS2_PLACEMENT_3D ( 'NONE', #17, #205, #296 ) ;
#76 = EDGE_CURVE ( 'NONE', #170, #98, #102, .T. ) ;
#77 = FACE_OUTER_BOUND ( 'NONE', #78, .T. ) ;
#78 = EDGE_LOOP ( 'NONE', ( #128, #73 ) ) ;
#79 = CC_DESIGN_APPROVAL ( #247, ( #94 ) ) ;
#80 = PRODUCT_DEFINITION ( 'NEZNÁMÝ', '', #301, #210 ) ;
#81 = DATE_AND_TIME ( #11, #112 ) ;
#82 = APPROVAL_STATUS ( 'not_yet_approved' ) ;
#83 = AXIS2_PLACEMENT_3D ( 'NONE', #208, #163, #23 ) ;
#84 = APPROVAL_DATE_TIME ( #153, #242 ) ;
#85 = PERSON_AND_ORGANIZATION_ROLE ( 'classification_officer' ) ;
#86 = FACE_OUTER_BOUND ( 'NONE', #196, .T. ) ;
#87 = APPROVAL_STATUS ( 'not_yet_approved' ) ;
#88 = CARTESIAN_POINT ( 'NONE',  ( 0.000000000000000000, 0.000000000000000000, 1004.999999999999886 ) ) ;
#89 = CARTESIAN_POINT ( 'NONE',  ( -4.299999999999998934, 5.265981236333617484E-16, 5.199999999999982414 ) ) ;
#90 = AXIS2_PLACEMENT_3D ( 'NONE', #32, #41, #272 ) ;
#91 = DIRECTION ( 'NONE',  ( 0.000000000000000000, 0.000000000000000000, 1.000000000000000000 ) ) ;
#92 = DIRECTION ( 'NONE',  ( 1.000000000000000000, 0.000000000000000000, 0.000000000000000000 ) ) ;
#93 = AXIS2_PLACEMENT_3D ( 'NONE', #274, #42, #65 ) ;
#94 = SECURITY_CLASSIFICATION ( '', '', #244 ) ;
#95 = DIRECTION ( 'NONE',  ( -0.000000000000000000, -0.000000000000000000, -1.000000000000000000 ) ) ;
#96 = PLANE ( 'NONE',  #48 ) ;
#97 = APPLICATION_CONTEXT ( 'configuration controlled 3d designs of mechanical parts and assemblies' ) ;
#98 = VERTEX_POINT ( 'NONE', #251 ) ;
#99 = ORIENTED_EDGE ( 'NONE', *, *, #241, .T. ) ;
#100 = EDGE_CURVE ( 'NONE', #31, #3, #164, .T. ) ;
#101 = ORIENTED_EDGE ( 'NONE', *, *, #76, .F. ) ;
#102 = CIRCLE ( 'NONE', #271, 7.000000000000000000 ) ;
#103 =( NAMED_UNIT ( * ) SI_UNIT ( $, .STERADIAN. ) SOLID_ANGLE_UNIT ( ) );
#104 = APPROVAL_DATE_TIME ( #154, #247 ) ;
#105 = CYLINDRICAL_SURFACE ( 'NONE', #281, 4.099999999999999645 ) ;
#106 = APPROVAL_ROLE ( '' ) ;
#107 = ADVANCED_BREP_SHAPE_REPRESENTATION ( '678b', ( #206, #119 ), #260 ) ;
#108 = CARTESIAN_POINT ( 'NONE',  ( -7.000000000000000000, 0.000000000000000000, 0.000000000000000000 ) ) ;
#109 = FACE_OUTER_BOUND ( 'NONE', #148, .T. ) ;
#110 = PERSON_AND_ORGANIZATION_ROLE ( 'design_supplier' ) ;
#111 = CARTESIAN_POINT ( 'NONE',  ( 4.299999999999998934, 0.000000000000000000, 5.199999999999982414 ) ) ;
#112 = LOCAL_TIME ( 12, 0, 0.000000000000000000, #223 ) ;
#113 = DIRECTION ( 'NONE',  ( 0.000000000000000000, 0.000000000000000000, -1.000000000000000000 ) ) ;
#114 = EDGE_CURVE ( 'NONE', #287, #31, #66, .T. ) ;
#115 = VERTEX_POINT ( 'NONE', #263 ) ;
#116 = ADVANCED_FACE ( 'NONE', ( #298 ), #305, .F. ) ;
#117 = CARTESIAN_POINT ( 'NONE',  ( 0.000000000000000000, 0.000000000000000000, 5.000000000000000000 ) ) ;
#118 = FACE_OUTER_BOUND ( 'NONE', #33, .T. ) ;
#119 = AXIS2_PLACEMENT_3D ( 'NONE', #134, #286, #266 ) ;
#120 = LINE ( 'NONE', #213, #289 ) ;
#121 = PRODUCT ( '678b', '678b', '', ( #225 ) ) ;
#122 = CC_DESIGN_SECURITY_CLASSIFICATION ( #94, ( #301 ) ) ;
#123 = DIRECTION ( 'NONE',  ( -0.000000000000000000, -0.000000000000000000, -1.000000000000000000 ) ) ;
#124 = ORIENTED_EDGE ( 'NONE', *, *, #69, .F. ) ;
#125 = ORIENTED_EDGE ( 'NONE', *, *, #127, .T. ) ;
#126 = ORIENTED_EDGE ( 'NONE', *, *, #69, .T. ) ;
#127 = EDGE_CURVE ( 'NONE', #306, #284, #188, .T. ) ;
#128 = ORIENTED_EDGE ( 'NONE', *, *, #46, .T. ) ;
#129 = CC_DESIGN_PERSON_AND_ORGANIZATION_ASSIGNMENT ( #245, #85, ( #94 ) ) ;
#130 = ORIENTED_EDGE ( 'NONE', *, *, #264, .T. ) ;
#131 = DIRECTION ( 'NONE',  ( 0.000000000000000000, 0.000000000000000000, 1.000000000000000000 ) ) ;
#132 = APPROVAL_DATE_TIME ( #14, #224 ) ;
#133 = VECTOR ( 'NONE', #15, 1000.000000000000000 ) ;
#134 = CARTESIAN_POINT ( 'NONE',  ( 0.000000000000000000, 0.000000000000000000, 0.000000000000000000 ) ) ;
#135 = COORDINATED_UNIVERSAL_TIME_OFFSET ( 1, 0, .AHEAD. ) ;
#136 = APPROVAL_PERSON_ORGANIZATION ( #37, #224, #106 ) ;
#137 = PERSON_AND_ORGANIZATION ( #279, #64 ) ;
#138 = APPROVAL_ROLE ( '' ) ;
#139 = LINE ( 'NONE', #227, #133 ) ;
#140 = EDGE_CURVE ( 'NONE', #216, #115, #217, .T. ) ;
#141 = DIRECTION ( 'NONE',  ( 1.000000000000000000, 0.000000000000000000, 0.000000000000000000 ) ) ;
#142 = DIRECTION ( 'NONE',  ( 0.000000000000000000, 0.000000000000000000, 1.000000000000000000 ) ) ;
#143 = DIRECTION ( 'NONE',  ( 1.000000000000000000, 0.000000000000000000, 0.000000000000000000 ) ) ;
#144 = CIRCLE ( 'NONE', #236, 7.000000000000000000 ) ;
#145 = FACE_BOUND ( 'NONE', #238, .T. ) ;
#146 = CYLINDRICAL_SURFACE ( 'NONE', #44, 7.000000000000000000 ) ;
#147 = LOCAL_TIME ( 12, 0, 0.000000000000000000, #203 ) ;
#148 = EDGE_LOOP ( 'NONE', ( #307, #99, #265, #124 ) ) ;
#149 = AXIS2_PLACEMENT_3D ( 'NONE', #89, #252, #183 ) ;
#150 = EDGE_LOOP ( 'NONE', ( #239, #101, #253, #125 ) ) ;
#151 = EDGE_LOOP ( 'NONE', ( #1, #18 ) ) ;
#152 = EDGE_LOOP ( 'NONE', ( #74, #54, #174, #50 ) ) ;
#153 = DATE_AND_TIME ( #292, #2 ) ;
#154 = DATE_AND_TIME ( #56, #7 ) ;
#155 = APPROVAL_ROLE ( '' ) ;
#156 = CARTESIAN_POINT ( 'NONE',  ( 0.000000000000000000, 0.000000000000000000, 1004.999999999999886 ) ) ;
#157 = CALENDAR_DATE ( 2022, 7, 7 ) ;
#158 = EDGE_CURVE ( 'NONE', #98, #170, #4, .T. ) ;
#159 = AXIS2_PLACEMENT_3D ( 'NONE', #277, #276, #302 ) ;
#160 = DIRECTION ( 'NONE',  ( -1.000000000000000000, 0.000000000000000000, 0.000000000000000000 ) ) ;
#161 = EDGE_CURVE ( 'NONE', #170, #306, #255, .T. ) ;
#162 = CARTESIAN_POINT ( 'NONE',  ( 4.099999999999999645, 5.021051876504147385E-16, 5.199999999999982414 ) ) ;
#163 = DIRECTION ( 'NONE',  ( -0.000000000000000000, -0.000000000000000000, -1.000000000000000000 ) ) ;
#164 = CIRCLE ( 'NONE', #39, 0.1999999999999996503 ) ;
#165 = CARTESIAN_POINT ( 'NONE',  ( -7.000000000000000000, 0.000000000000000000, 5.000000000000000000 ) ) ;
#166 = DIRECTION ( 'NONE',  ( 0.000000000000000000, 0.000000000000000000, 1.000000000000000000 ) ) ;
#167 = CARTESIAN_POINT ( 'NONE',  ( 4.099999999999999645, 5.021051876504147385E-16, 1004.999999999999886 ) ) ;
#168 = EDGE_CURVE ( 'NONE', #31, #287, #12, .T. ) ;
#169 = CC_DESIGN_PERSON_AND_ORGANIZATION_ASSIGNMENT ( #6, #110, ( #301 ) ) ;
#170 = VERTEX_POINT ( 'NONE', #232 ) ;
#171 = ORIENTED_EDGE ( 'NONE', *, *, #181, .T. ) ;
#172 = CARTESIAN_POINT ( 'NONE',  ( 4.299999999999998934, 0.000000000000000000, 4.999999999999991118 ) ) ;
#173 = AXIS2_PLACEMENT_3D ( 'NONE', #207, #166, #45 ) ;
#174 = ORIENTED_EDGE ( 'NONE', *, *, #100, .T. ) ;
#175 = CARTESIAN_POINT ( 'NONE',  ( 7.000000000000000000, 8.572527594031473190E-16, 0.000000000000000000 ) ) ;
#176 = LOCAL_TIME ( 12, 0, 0.000000000000000000, #197 ) ;
#177 = EDGE_LOOP ( 'NONE', ( #193, #218, #195, #51 ) ) ;
#178 = DATE_TIME_ROLE ( 'creation_date' ) ;
#179 = AXIS2_PLACEMENT_3D ( 'NONE', #275, #230, #143 ) ;
#180 = DIRECTION ( 'NONE',  ( -0.000000000000000000, -0.000000000000000000, -1.000000000000000000 ) ) ;
#181 = EDGE_CURVE ( 'NONE', #240, #3, #285, .T. ) ;
#182 = DIRECTION ( 'NONE',  ( -1.000000000000000000, 0.000000000000000000, 0.000000000000000000 ) ) ;
#183 = DIRECTION ( 'NONE',  ( -1.000000000000000000, 1.224646799147353454E-16, 0.000000000000000000 ) ) ;
#184 = CIRCLE ( 'NONE', #159, 4.299999999999998934 ) ;
#185 = CYLINDRICAL_SURFACE ( 'NONE', #258, 7.000000000000000000 ) ;
#186 = CARTESIAN_POINT ( 'NONE',  ( 0.000000000000000000, 0.000000000000000000, 1004.999999999999886 ) ) ;
#187 = CARTESIAN_POINT ( 'NONE',  ( 0.000000000000000000, 0.000000000000000000, 5.199999999999982414 ) ) ;
#188 = CIRCLE ( 'NONE', #179, 7.000000000000000000 ) ;
#189 = ADVANCED_FACE ( 'NONE', ( #118 ), #43, .F. ) ;
#190 = DIRECTION ( 'NONE',  ( 1.000000000000000000, 0.000000000000000000, -0.000000000000000000 ) ) ;
#191 = LINE ( 'NONE', #27, #194 ) ;
#192 = FACE_OUTER_BOUND ( 'NONE', #177, .T. ) ;
#193 = ORIENTED_EDGE ( 'NONE', *, *, #114, .F. ) ;
#194 = VECTOR ( 'NONE', #24, 1000.000000000000000 ) ;
#195 = ORIENTED_EDGE ( 'NONE', *, *, #198, .F. ) ;
#196 = EDGE_LOOP ( 'NONE', ( #219, #220, #126, #261 ) ) ;
#197 = COORDINATED_UNIVERSAL_TIME_OFFSET ( 1, 0, .AHEAD. ) ;
#198 = EDGE_CURVE ( 'NONE', #3, #240, #184, .T. ) ;
#199 = DIRECTION ( 'NONE',  ( -0.000000000000000000, -0.000000000000000000, -1.000000000000000000 ) ) ;
#200 = SHAPE_DEFINITION_REPRESENTATION ( #212, #107 ) ;
#201 = AXIS2_PLACEMENT_3D ( 'NONE', #117, #91, #21 ) ;
#202 = CC_DESIGN_APPROVAL ( #242, ( #80 ) ) ;
#203 = COORDINATED_UNIVERSAL_TIME_OFFSET ( 1, 0, .AHEAD. ) ;
#204 = FACE_OUTER_BOUND ( 'NONE', #30, .T. ) ;
#205 = DIRECTION ( 'NONE',  ( 0.000000000000000000, 0.000000000000000000, 1.000000000000000000 ) ) ;
#206 = MANIFOLD_SOLID_BREP ( 'Zaoblit1', #25 ) ;
#207 = CARTESIAN_POINT ( 'NONE',  ( 0.000000000000000000, 0.000000000000000000, 0.000000000000000000 ) ) ;
#208 = CARTESIAN_POINT ( 'NONE',  ( 0.000000000000000000, 0.000000000000000000, 5.000000000000000000 ) ) ;
#209 = ADVANCED_FACE ( 'NONE', ( #145, #70 ), #96, .T. ) ;
#210 = DESIGN_CONTEXT ( 'detailed design', #97, 'design' ) ;
#211 = TOROIDAL_SURFACE ( 'NONE', #90, 4.299999999999998934, 0.2000000000000000111 ) ;
#212 = PRODUCT_DEFINITION_SHAPE ( 'NONE', 'NONE',  #80 ) ;
#213 = CARTESIAN_POINT ( 'NONE',  ( 7.000000000000000000, 8.572527594031473190E-16, 5.000000000000000000 ) ) ;
#214 = CC_DESIGN_PERSON_AND_ORGANIZATION_ASSIGNMENT ( #55, #60, ( #121 ) ) ;
#215 = DIRECTION ( 'NONE',  ( -1.000000000000000000, 0.000000000000000000, 0.000000000000000000 ) ) ;
#216 = VERTEX_POINT ( 'NONE', #167 ) ;
#217 = CIRCLE ( 'NONE', #226, 4.099999999999999645 ) ;
#218 = ORIENTED_EDGE ( 'NONE', *, *, #57, .T. ) ;
#219 = ORIENTED_EDGE ( 'NONE', *, *, #241, .F. ) ;
#220 = ORIENTED_EDGE ( 'NONE', *, *, #46, .F. ) ;
#221 = EDGE_CURVE ( 'NONE', #284, #306, #144, .T. ) ;
#222 =( NAMED_UNIT ( * ) PLANE_ANGLE_UNIT ( ) SI_UNIT ( $, .RADIAN. ) );
#223 = COORDINATED_UNIVERSAL_TIME_OFFSET ( 1, 0, .AHEAD. ) ;
#224 = APPROVAL ( #87, 'NEURÈENÝ' ) ;
#225 = MECHANICAL_CONTEXT ( 'NONE', #53, 'mechanical' ) ;
#226 = AXIS2_PLACEMENT_3D ( 'NONE', #186, #67, #254 ) ;
#227 = CARTESIAN_POINT ( 'NONE',  ( -4.099999999999999645, 0.000000000000000000, 1004.999999999999886 ) ) ;
#228 = CC_DESIGN_APPROVAL ( #224, ( #301 ) ) ;
#229 = CARTESIAN_POINT ( 'NONE',  ( 0.000000000000000000, 0.000000000000000000, 5.000000000000000000 ) ) ;
#230 = DIRECTION ( 'NONE',  ( 0.000000000000000000, 0.000000000000000000, 1.000000000000000000 ) ) ;
#231 = ADVANCED_FACE ( 'NONE', ( #300 ), #146, .T. ) ;
#232 = CARTESIAN_POINT ( 'NONE',  ( -7.000000000000000000, 0.000000000000000000, 5.000000000000000000 ) ) ;
#233 = CARTESIAN_POINT ( 'NONE',  ( 0.000000000000000000, 0.000000000000000000, 5.000000000000000000 ) ) ;
#234 = CIRCLE ( 'NONE', #149, 0.1999999999999996503 ) ;
#235 = CARTESIAN_POINT ( 'NONE',  ( -4.299999999999998934, 5.265981236333617484E-16, 4.999999999999991118 ) ) ;
#236 = AXIS2_PLACEMENT_3D ( 'NONE', #257, #47, #256 ) ;
#237 = ORIENTED_EDGE ( 'NONE', *, *, #161, .F. ) ;
#238 = EDGE_LOOP ( 'NONE', ( #282, #171 ) ) ;
#239 = ORIENTED_EDGE ( 'NONE', *, *, #264, .F. ) ;
#240 = VERTEX_POINT ( 'NONE', #235 ) ;
#241 = EDGE_CURVE ( 'NONE', #216, #31, #191, .T. ) ;
#242 = APPROVAL ( #82, 'NEURÈENÝ' ) ;
#243 = PERSON_AND_ORGANIZATION ( #279, #64 ) ;
#244 = SECURITY_CLASSIFICATION_LEVEL ( 'unclassified' ) ;
#245 = PERSON_AND_ORGANIZATION ( #279, #64 ) ;
#246 = COORDINATED_UNIVERSAL_TIME_OFFSET ( 1, 0, .AHEAD. ) ;
#247 = APPROVAL ( #61, 'NEURÈENÝ' ) ;
#248 = DIRECTION ( 'NONE',  ( 1.000000000000000000, 0.000000000000000000, -0.000000000000000000 ) ) ;
#249 = PERSON_AND_ORGANIZATION ( #279, #64 ) ;
#250 = VECTOR ( 'NONE', #19, 1000.000000000000000 ) ;
#251 = CARTESIAN_POINT ( 'NONE',  ( 7.000000000000000000, 8.572527594031473190E-16, 5.000000000000000000 ) ) ;
#252 = DIRECTION ( 'NONE',  ( 1.224646799147353207E-16, 1.000000000000000000, -0.000000000000000000 ) ) ;
#253 = ORIENTED_EDGE ( 'NONE', *, *, #161, .T. ) ;
#254 = DIRECTION ( 'NONE',  ( 1.000000000000000000, 0.000000000000000000, 0.000000000000000000 ) ) ;
#255 = LINE ( 'NONE', #165, #250 ) ;
#256 = DIRECTION ( 'NONE',  ( 1.000000000000000000, 0.000000000000000000, 0.000000000000000000 ) ) ;
#257 = CARTESIAN_POINT ( 'NONE',  ( 0.000000000000000000, 0.000000000000000000, 0.000000000000000000 ) ) ;
#258 = AXIS2_PLACEMENT_3D ( 'NONE', #294, #63, #160 ) ;
#259 = APPROVAL_PERSON_ORGANIZATION ( #249, #247, #138 ) ;
#260 =( GEOMETRIC_REPRESENTATION_CONTEXT ( 3 ) GLOBAL_UNCERTAINTY_ASSIGNED_CONTEXT ( ( #68 ) ) GLOBAL_UNIT_ASSIGNED_CONTEXT ( ( #34, #222, #103 ) ) REPRESENTATION_CONTEXT ( 'NONE', 'WORKASPACE' ) );
#261 = ORIENTED_EDGE ( 'NONE', *, *, #114, .T. ) ;
#262 = ORIENTED_EDGE ( 'NONE', *, *, #221, .F. ) ;
#263 = CARTESIAN_POINT ( 'NONE',  ( -4.099999999999999645, 0.000000000000000000, 1004.999999999999886 ) ) ;
#264 = EDGE_CURVE ( 'NONE', #98, #284, #120, .T. ) ;
#265 = ORIENTED_EDGE ( 'NONE', *, *, #168, .T. ) ;
#266 = DIRECTION ( 'NONE',  ( 1.000000000000000000, 0.000000000000000000, 0.000000000000000000 ) ) ;
#267 = DATE_AND_TIME ( #288, #176 ) ;
#268 = PLANE ( 'NONE',  #303 ) ;
#269 = DIRECTION ( 'NONE',  ( 1.000000000000000000, 0.000000000000000000, 0.000000000000000000 ) ) ;
#270 = ADVANCED_FACE ( 'NONE', ( #86 ), #105, .T. ) ;
#271 = AXIS2_PLACEMENT_3D ( 'NONE', #229, #62, #269 ) ;
#272 = DIRECTION ( 'NONE',  ( 1.000000000000000000, 0.000000000000000000, 0.000000000000000000 ) ) ;
#273 = CC_DESIGN_DATE_AND_TIME_ASSIGNMENT ( #267, #178, ( #80 ) ) ;
#274 = CARTESIAN_POINT ( 'NONE',  ( 0.000000000000000000, 0.000000000000000000, 5.199999999999982414 ) ) ;
#275 = CARTESIAN_POINT ( 'NONE',  ( 0.000000000000000000, 0.000000000000000000, 0.000000000000000000 ) ) ;
#276 = DIRECTION ( 'NONE',  ( -0.000000000000000000, -0.000000000000000000, -1.000000000000000000 ) ) ;
#277 = CARTESIAN_POINT ( 'NONE',  ( 0.000000000000000000, 0.000000000000000000, 5.000000000000000000 ) ) ;
#278 = CARTESIAN_POINT ( 'NONE',  ( 0.000000000000000000, 0.000000000000000000, 5.000000000000000000 ) ) ;
#279 = PERSON ( 'NEURÈENÝ', 'NEURÈENÝ', 'NEURÈENÝ', ('NEURÈENÝ'), ('NEURÈENÝ'), ('NEURÈENÝ') ) ;
#280 = ORIENTED_EDGE ( 'NONE', *, *, #158, .F. ) ;
#281 = AXIS2_PLACEMENT_3D ( 'NONE', #10, #180, #36 ) ;
#282 = ORIENTED_EDGE ( 'NONE', *, *, #198, .T. ) ;
#283 = ADVANCED_FACE ( 'NONE', ( #77 ), #268, .T. ) ;
#284 = VERTEX_POINT ( 'NONE', #175 ) ;
#285 = CIRCLE ( 'NONE', #83, 4.299999999999998934 ) ;
#286 = DIRECTION ( 'NONE',  ( 0.000000000000000000, 0.000000000000000000, 1.000000000000000000 ) ) ;
#287 = VERTEX_POINT ( 'NONE', #293 ) ;
#288 = CALENDAR_DATE ( 2022, 7, 7 ) ;
#289 = VECTOR ( 'NONE', #95, 1000.000000000000000 ) ;
#290 = APPLICATION_PROTOCOL_DEFINITION ( 'international standard', 'config_control_design', 1994, #97 ) ;
#291 = AXIS2_PLACEMENT_3D ( 'NONE', #88, #38, #141 ) ;
#292 = CALENDAR_DATE ( 2022, 7, 7 ) ;
#293 = CARTESIAN_POINT ( 'NONE',  ( -4.099999999999999645, 0.000000000000000000, 5.199999999999982414 ) ) ;
#294 = CARTESIAN_POINT ( 'NONE',  ( 0.000000000000000000, 0.000000000000000000, 5.000000000000000000 ) ) ;
#295 = ADVANCED_FACE ( 'NONE', ( #109 ), #8, .T. ) ;
#296 = DIRECTION ( 'NONE',  ( 1.000000000000000000, 0.000000000000000000, 0.000000000000000000 ) ) ;
#297 = CC_DESIGN_DATE_AND_TIME_ASSIGNMENT ( #81, #9, ( #94 ) ) ;
#298 = FACE_OUTER_BOUND ( 'NONE', #152, .T. ) ;
#299 = CIRCLE ( 'NONE', #291, 4.099999999999999645 ) ;
#300 = FACE_OUTER_BOUND ( 'NONE', #150, .T. ) ;
#301 = PRODUCT_DEFINITION_FORMATION_WITH_SPECIFIED_SOURCE ( 'LIBOVOLNÝ', '', #121, .NOT_KNOWN. ) ;
#302 = DIRECTION ( 'NONE',  ( 1.000000000000000000, 0.000000000000000000, 0.000000000000000000 ) ) ;
#303 = AXIS2_PLACEMENT_3D ( 'NONE', #156, #131, #248 ) ;
#304 = CC_DESIGN_PERSON_AND_ORGANIZATION_ASSIGNMENT ( #35, #59, ( #301 ) ) ;
#305 = TOROIDAL_SURFACE ( 'NONE', #29, 4.299999999999998934, 0.2000000000000000111 ) ;
#306 = VERTEX_POINT ( 'NONE', #108 ) ;
#307 = ORIENTED_EDGE ( 'NONE', *, *, #140, .F. ) ;
ENDSEC;
END-ISO-10303-21;
