ISO-10303-21;
HEADER;
FILE_DESCRIPTION (( 'STEP AP203' ),
    '1' );
FILE_NAME ('0185.STEP',
    '2023-02-12T11:26:15',
    ( '' ),
    ( '' ),
    'SwSTEP 2.0',
    'SolidWorks 2019',
    '' );
FILE_SCHEMA (( 'CONFIG_CONTROL_DESIGN' ));
ENDSEC;

DATA;
#1 = APPROVAL ( #13, 'NEURÈENÝ' ) ;
#2 = CARTESIAN_POINT ( 'NONE',  ( 0.000000000000000000, 0.000000000000000000, 0.000000000000000000 ) ) ;
#3 = CIRCLE ( 'NONE', #52, 5.000000000000000888 ) ;
#4 = DIRECTION ( 'NONE',  ( 0.000000000000000000, 0.000000000000000000, 1.000000000000000000 ) ) ;
#5 = DIRECTION ( 'NONE',  ( 0.000000000000000000, 0.000000000000000000, 1.000000000000000000 ) ) ;
#6 = PRODUCT_DEFINITION_SHAPE ( 'NONE', 'NONE',  #50 ) ;
#7 = ADVANCED_BREP_SHAPE_REPRESENTATION ( '0185', ( #224, #25 ), #172 ) ;
#8 = CARTESIAN_POINT ( 'NONE',  ( -8.000000000000000000, 0.000000000000000000, 5.000000000000000000 ) ) ;
#9 = EDGE_LOOP ( 'NONE', ( #246, #11, #199, #182 ) ) ;
#10 = VERTEX_POINT ( 'NONE', #31 ) ;
#11 = ORIENTED_EDGE ( 'NONE', *, *, #83, .T. ) ;
#12 = AXIS2_PLACEMENT_3D ( 'NONE', #163, #161, #253 ) ;
#13 = APPROVAL_STATUS ( 'not_yet_approved' ) ;
#14 = DIRECTION ( 'NONE',  ( 0.000000000000000000, 0.000000000000000000, 1.000000000000000000 ) ) ;
#15 = PRODUCT_RELATED_PRODUCT_CATEGORY ( 'detail', '', ( #55 ) ) ;
#16 = CALENDAR_DATE ( 2023, 12, 2 ) ;
#17 = FACE_OUTER_BOUND ( 'NONE', #59, .T. ) ;
#18 = AXIS2_PLACEMENT_3D ( 'NONE', #2, #14, #202 ) ;
#19 = CARTESIAN_POINT ( 'NONE',  ( 8.000000000000000000, 9.797174393178825657E-16, 5.000000000000000000 ) ) ;
#20 = EDGE_CURVE ( 'NONE', #152, #10, #214, .T. ) ;
#21 = PERSON_AND_ORGANIZATION ( #164, #128 ) ;
#22 = PLANE ( 'NONE',  #236 ) ;
#23 = PRODUCT_DEFINITION_FORMATION_WITH_SPECIFIED_SOURCE ( 'LIBOVOLNÝ', '', #55, .NOT_KNOWN. ) ;
#24 = VECTOR ( 'NONE', #111, 1000.000000000000000 ) ;
#25 = AXIS2_PLACEMENT_3D ( 'NONE', #183, #160, #87 ) ;
#26 = VERTEX_POINT ( 'NONE', #171 ) ;
#27 = PLANE ( 'NONE',  #244 ) ;
#28 = ORIENTED_EDGE ( 'NONE', *, *, #67, .F. ) ;
#29 = ORIENTED_EDGE ( 'NONE', *, *, #99, .F. ) ;
#30 = ADVANCED_FACE ( 'NONE', ( #151 ), #242, .T. ) ;
#31 = CARTESIAN_POINT ( 'NONE',  ( 5.000000000000000888, 6.123233995736767268E-16, 5.000000000000000000 ) ) ;
#32 = EDGE_LOOP ( 'NONE', ( #254, #34 ) ) ;
#33 = COORDINATED_UNIVERSAL_TIME_OFFSET ( 1, 0, .AHEAD. ) ;
#34 = ORIENTED_EDGE ( 'NONE', *, *, #71, .T. ) ;
#35 = CIRCLE ( 'NONE', #147, 8.000000000000000000 ) ;
#36 = CARTESIAN_POINT ( 'NONE',  ( -5.000000000000000888, 0.000000000000000000, 800.0000000000000000 ) ) ;
#37 = CYLINDRICAL_SURFACE ( 'NONE', #116, 8.000000000000000000 ) ;
#38 = CARTESIAN_POINT ( 'NONE',  ( 0.000000000000000000, 0.000000000000000000, 5.000000000000000000 ) ) ;
#39 = APPROVAL_ROLE ( '' ) ;
#40 = DESIGN_CONTEXT ( 'detailed design', #64, 'design' ) ;
#41 = DIRECTION ( 'NONE',  ( 0.000000000000000000, 0.000000000000000000, 1.000000000000000000 ) ) ;
#42 = PERSON_AND_ORGANIZATION_ROLE ( 'creator' ) ;
#43 = CARTESIAN_POINT ( 'NONE',  ( -8.000000000000000000, 0.000000000000000000, 0.000000000000000000 ) ) ;
#44 = EDGE_CURVE ( 'NONE', #69, #74, #252, .T. ) ;
#45 = ADVANCED_FACE ( 'NONE', ( #159 ), #75, .T. ) ;
#46 = LINE ( 'NONE', #8, #247 ) ;
#47 = SECURITY_CLASSIFICATION_LEVEL ( 'unclassified' ) ;
#48 = CARTESIAN_POINT ( 'NONE',  ( -5.000000000000000888, 0.000000000000000000, 5.000000000000000000 ) ) ;
#49 = AXIS2_PLACEMENT_3D ( 'NONE', #78, #187, #144 ) ;
#50 = PRODUCT_DEFINITION ( 'NEZNÁMÝ', '', #23, #40 ) ;
#51 = LINE ( 'NONE', #82, #24 ) ;
#52 = AXIS2_PLACEMENT_3D ( 'NONE', #129, #4, #212 ) ;
#53 = VERTEX_POINT ( 'NONE', #36 ) ;
#54 = ORIENTED_EDGE ( 'NONE', *, *, #174, .F. ) ;
#55 = PRODUCT ( '0185', '0185', '', ( #142 ) ) ;
#56 = APPROVAL_STATUS ( 'not_yet_approved' ) ;
#57 = APPROVAL_DATE_TIME ( #162, #207 ) ;
#58 = ADVANCED_FACE ( 'NONE', ( #185 ), #89, .T. ) ;
#59 = EDGE_LOOP ( 'NONE', ( #119, #243, #117, #73 ) ) ;
#60 = FACE_OUTER_BOUND ( 'NONE', #190, .T. ) ;
#61 = AXIS2_PLACEMENT_3D ( 'NONE', #124, #200, #105 ) ;
#62 = COORDINATED_UNIVERSAL_TIME_OFFSET ( 1, 0, .AHEAD. ) ;
#63 = FACE_OUTER_BOUND ( 'NONE', #102, .T. ) ;
#64 = APPLICATION_CONTEXT ( 'configuration controlled 3d designs of mechanical parts and assemblies' ) ;
#65 = PERSON_AND_ORGANIZATION_ROLE ( 'design_supplier' ) ;
#66 =( NAMED_UNIT ( * ) PLANE_ANGLE_UNIT ( ) SI_UNIT ( $, .RADIAN. ) );
#67 = EDGE_CURVE ( 'NONE', #10, #152, #92, .T. ) ;
#68 = ORIENTED_EDGE ( 'NONE', *, *, #189, .T. ) ;
#69 = VERTEX_POINT ( 'NONE', #232 ) ;
#70 = CIRCLE ( 'NONE', #203, 5.000000000000000888 ) ;
#71 = EDGE_CURVE ( 'NONE', #74, #69, #35, .T. ) ;
#72 = ORIENTED_EDGE ( 'NONE', *, *, #44, .F. ) ;
#73 = ORIENTED_EDGE ( 'NONE', *, *, #189, .F. ) ;
#74 = VERTEX_POINT ( 'NONE', #19 ) ;
#75 = CYLINDRICAL_SURFACE ( 'NONE', #131, 8.000000000000000000 ) ;
#76 = DATE_TIME_ROLE ( 'creation_date' ) ;
#77 = CLOSED_SHELL ( 'NONE', ( #30, #123, #45, #155, #98, #58, #251 ) ) ;
#78 = CARTESIAN_POINT ( 'NONE',  ( 0.000000000000000000, 0.000000000000000000, 5.000000000000000000 ) ) ;
#79 = EDGE_LOOP ( 'NONE', ( #220, #28 ) ) ;
#80 = PERSON_AND_ORGANIZATION ( #164, #128 ) ;
#81 =( LENGTH_UNIT ( ) NAMED_UNIT ( * ) SI_UNIT ( .MILLI., .METRE. ) );
#82 = CARTESIAN_POINT ( 'NONE',  ( 8.000000000000000000, 9.797174393178825657E-16, 5.000000000000000000 ) ) ;
#83 = EDGE_CURVE ( 'NONE', #26, #10, #143, .T. ) ;
#84 = ORIENTED_EDGE ( 'NONE', *, *, #201, .F. ) ;
#85 = DATE_TIME_ROLE ( 'classification_date' ) ;
#86 = CC_DESIGN_PERSON_AND_ORGANIZATION_ASSIGNMENT ( #205, #181, ( #55 ) ) ;
#87 = DIRECTION ( 'NONE',  ( 1.000000000000000000, 0.000000000000000000, 0.000000000000000000 ) ) ;
#88 = DIRECTION ( 'NONE',  ( -0.000000000000000000, -0.000000000000000000, -1.000000000000000000 ) ) ;
#89 = CYLINDRICAL_SURFACE ( 'NONE', #12, 5.000000000000000888 ) ;
#90 = CC_DESIGN_DATE_AND_TIME_ASSIGNMENT ( #188, #76, ( #50 ) ) ;
#91 = COORDINATED_UNIVERSAL_TIME_OFFSET ( 1, 0, .AHEAD. ) ;
#92 = CIRCLE ( 'NONE', #49, 5.000000000000000888 ) ;
#93 = CARTESIAN_POINT ( 'NONE',  ( 0.000000000000000000, 0.000000000000000000, 5.000000000000000000 ) ) ;
#94 = APPROVAL_PERSON_ORGANIZATION ( #145, #207, #233 ) ;
#95 = DIRECTION ( 'NONE',  ( -1.000000000000000000, 0.000000000000000000, 0.000000000000000000 ) ) ;
#96 = CALENDAR_DATE ( 2023, 12, 2 ) ;
#97 = FACE_BOUND ( 'NONE', #79, .T. ) ;
#98 = ADVANCED_FACE ( 'NONE', ( #60 ), #167, .F. ) ;
#99 = EDGE_CURVE ( 'NONE', #137, #133, #180, .T. ) ;
#100 = DIRECTION ( 'NONE',  ( 0.000000000000000000, 0.000000000000000000, 1.000000000000000000 ) ) ;
#101 = PERSON_AND_ORGANIZATION ( #164, #128 ) ;
#102 = EDGE_LOOP ( 'NONE', ( #195, #197 ) ) ;
#103 = CC_DESIGN_DATE_AND_TIME_ASSIGNMENT ( #213, #85, ( #126 ) ) ;
#104 = AXIS2_PLACEMENT_3D ( 'NONE', #93, #227, #179 ) ;
#105 = DIRECTION ( 'NONE',  ( -1.000000000000000000, 0.000000000000000000, 0.000000000000000000 ) ) ;
#106 = VECTOR ( 'NONE', #166, 1000.000000000000000 ) ;
#107 = CARTESIAN_POINT ( 'NONE',  ( 8.000000000000000000, 9.797174393178825657E-16, 0.000000000000000000 ) ) ;
#108 = CARTESIAN_POINT ( 'NONE',  ( -5.000000000000000888, 0.000000000000000000, 800.0000000000000000 ) ) ;
#109 = APPLICATION_CONTEXT ( 'configuration controlled 3d designs of mechanical parts and assemblies' ) ;
#110 = SHAPE_DEFINITION_REPRESENTATION ( #6, #7 ) ;
#111 = DIRECTION ( 'NONE',  ( -0.000000000000000000, -0.000000000000000000, -1.000000000000000000 ) ) ;
#112 = AXIS2_PLACEMENT_3D ( 'NONE', #178, #156, #221 ) ;
#113 = APPROVAL_PERSON_ORGANIZATION ( #101, #149, #208 ) ;
#114 = PERSON_AND_ORGANIZATION ( #164, #128 ) ;
#115 = ORIENTED_EDGE ( 'NONE', *, *, #83, .F. ) ;
#116 = AXIS2_PLACEMENT_3D ( 'NONE', #206, #88, #95 ) ;
#117 = ORIENTED_EDGE ( 'NONE', *, *, #99, .T. ) ;
#118 = UNCERTAINTY_MEASURE_WITH_UNIT (LENGTH_MEASURE( 1.000000000000000082E-05 ), #81, 'distance_accuracy_value', 'NONE');
#119 = ORIENTED_EDGE ( 'NONE', *, *, #71, .F. ) ;
#120 = APPROVAL_STATUS ( 'not_yet_approved' ) ;
#121 = AXIS2_PLACEMENT_3D ( 'NONE', #184, #41, #209 ) ;
#122 = ORIENTED_EDGE ( 'NONE', *, *, #138, .T. ) ;
#123 = ADVANCED_FACE ( 'NONE', ( #17 ), #37, .T. ) ;
#124 = CARTESIAN_POINT ( 'NONE',  ( 0.000000000000000000, 0.000000000000000000, 800.0000000000000000 ) ) ;
#125 = DIRECTION ( 'NONE',  ( -1.000000000000000000, 0.000000000000000000, 0.000000000000000000 ) ) ;
#126 = SECURITY_CLASSIFICATION ( '', '', #47 ) ;
#127 = CALENDAR_DATE ( 2023, 12, 2 ) ;
#128 = ORGANIZATION ( 'NEURÈENÝ', 'NEURÈENÝ', '' ) ;
#129 = CARTESIAN_POINT ( 'NONE',  ( 0.000000000000000000, 0.000000000000000000, 800.0000000000000000 ) ) ;
#130 = DIRECTION ( 'NONE',  ( 0.000000000000000000, 0.000000000000000000, 1.000000000000000000 ) ) ;
#131 = AXIS2_PLACEMENT_3D ( 'NONE', #38, #140, #125 ) ;
#132 = LOCAL_TIME ( 12, 26, 15.00000000000000000, #225 ) ;
#133 = VERTEX_POINT ( 'NONE', #43 ) ;
#134 = FACE_OUTER_BOUND ( 'NONE', #32, .T. ) ;
#135 = CIRCLE ( 'NONE', #169, 8.000000000000000000 ) ;
#136 = ORIENTED_EDGE ( 'NONE', *, *, #20, .T. ) ;
#137 = VERTEX_POINT ( 'NONE', #107 ) ;
#138 = EDGE_CURVE ( 'NONE', #53, #152, #230, .T. ) ;
#139 = EDGE_CURVE ( 'NONE', #53, #26, #3, .T. ) ;
#140 = DIRECTION ( 'NONE',  ( -0.000000000000000000, -0.000000000000000000, -1.000000000000000000 ) ) ;
#141 = APPROVAL_DATE_TIME ( #249, #1 ) ;
#142 = MECHANICAL_CONTEXT ( 'NONE', #109, 'mechanical' ) ;
#143 = LINE ( 'NONE', #226, #240 ) ;
#144 = DIRECTION ( 'NONE',  ( 1.000000000000000000, 0.000000000000000000, 0.000000000000000000 ) ) ;
#145 = PERSON_AND_ORGANIZATION ( #164, #128 ) ;
#146 = APPLICATION_PROTOCOL_DEFINITION ( 'international standard', 'config_control_design', 1994, #109 ) ;
#147 = AXIS2_PLACEMENT_3D ( 'NONE', #204, #235, #186 ) ;
#148 = DIRECTION ( 'NONE',  ( 1.000000000000000000, 0.000000000000000000, 0.000000000000000000 ) ) ;
#149 = APPROVAL ( #120, 'NEURÈENÝ' ) ;
#150 = DIRECTION ( 'NONE',  ( 0.000000000000000000, 0.000000000000000000, 1.000000000000000000 ) ) ;
#151 = FACE_OUTER_BOUND ( 'NONE', #9, .T. ) ;
#152 = VERTEX_POINT ( 'NONE', #48 ) ;
#153 = CC_DESIGN_SECURITY_CLASSIFICATION ( #126, ( #23 ) ) ;
#154 = EDGE_LOOP ( 'NONE', ( #115, #219, #122, #136 ) ) ;
#155 = ADVANCED_FACE ( 'NONE', ( #97, #134 ), #22, .T. ) ;
#156 = DIRECTION ( 'NONE',  ( 0.000000000000000000, 0.000000000000000000, 1.000000000000000000 ) ) ;
#157 = CALENDAR_DATE ( 2023, 12, 2 ) ;
#158 = LOCAL_TIME ( 12, 26, 15.00000000000000000, #91 ) ;
#159 = FACE_OUTER_BOUND ( 'NONE', #245, .T. ) ;
#160 = DIRECTION ( 'NONE',  ( 0.000000000000000000, 0.000000000000000000, 1.000000000000000000 ) ) ;
#161 = DIRECTION ( 'NONE',  ( -0.000000000000000000, -0.000000000000000000, -1.000000000000000000 ) ) ;
#162 = DATE_AND_TIME ( #127, #158 ) ;
#163 = CARTESIAN_POINT ( 'NONE',  ( 0.000000000000000000, 0.000000000000000000, 800.0000000000000000 ) ) ;
#164 = PERSON ( 'NEURÈENÝ', 'NEURÈENÝ', 'NEURÈENÝ', ('NEURÈENÝ'), ('NEURÈENÝ'), ('NEURÈENÝ') ) ;
#165 = CALENDAR_DATE ( 2023, 12, 2 ) ;
#166 = DIRECTION ( 'NONE',  ( -0.000000000000000000, -0.000000000000000000, -1.000000000000000000 ) ) ;
#167 = PLANE ( 'NONE',  #121 ) ;
#168 = CC_DESIGN_PERSON_AND_ORGANIZATION_ASSIGNMENT ( #21, #239, ( #23 ) ) ;
#169 = AXIS2_PLACEMENT_3D ( 'NONE', #173, #5, #148 ) ;
#170 = DIRECTION ( 'NONE',  ( 1.000000000000000000, 0.000000000000000000, -0.000000000000000000 ) ) ;
#171 = CARTESIAN_POINT ( 'NONE',  ( 5.000000000000000888, 6.123233995736767268E-16, 800.0000000000000000 ) ) ;
#172 =( GEOMETRIC_REPRESENTATION_CONTEXT ( 3 ) GLOBAL_UNCERTAINTY_ASSIGNED_CONTEXT ( ( #118 ) ) GLOBAL_UNIT_ASSIGNED_CONTEXT ( ( #81, #66, #217 ) ) REPRESENTATION_CONTEXT ( 'NONE', 'WORKASPACE' ) );
#173 = CARTESIAN_POINT ( 'NONE',  ( 0.000000000000000000, 0.000000000000000000, 0.000000000000000000 ) ) ;
#174 = EDGE_CURVE ( 'NONE', #133, #137, #135, .T. ) ;
#175 = DIRECTION ( 'NONE',  ( 1.000000000000000000, 0.000000000000000000, -0.000000000000000000 ) ) ;
#176 = ORIENTED_EDGE ( 'NONE', *, *, #174, .T. ) ;
#177 = APPROVAL_PERSON_ORGANIZATION ( #80, #1, #39 ) ;
#178 = CARTESIAN_POINT ( 'NONE',  ( 0.000000000000000000, 0.000000000000000000, 5.000000000000000000 ) ) ;
#179 = DIRECTION ( 'NONE',  ( 1.000000000000000000, 0.000000000000000000, 0.000000000000000000 ) ) ;
#180 = CIRCLE ( 'NONE', #18, 8.000000000000000000 ) ;
#181 = PERSON_AND_ORGANIZATION_ROLE ( 'design_owner' ) ;
#182 = ORIENTED_EDGE ( 'NONE', *, *, #138, .F. ) ;
#183 = CARTESIAN_POINT ( 'NONE',  ( 0.000000000000000000, 0.000000000000000000, 0.000000000000000000 ) ) ;
#184 = CARTESIAN_POINT ( 'NONE',  ( 0.000000000000000000, 0.000000000000000000, 0.000000000000000000 ) ) ;
#185 = FACE_OUTER_BOUND ( 'NONE', #154, .T. ) ;
#186 = DIRECTION ( 'NONE',  ( 1.000000000000000000, 0.000000000000000000, 0.000000000000000000 ) ) ;
#187 = DIRECTION ( 'NONE',  ( 0.000000000000000000, 0.000000000000000000, 1.000000000000000000 ) ) ;
#188 = DATE_AND_TIME ( #165, #132 ) ;
#189 = EDGE_CURVE ( 'NONE', #69, #133, #46, .T. ) ;
#190 = EDGE_LOOP ( 'NONE', ( #54, #29 ) ) ;
#191 = CC_DESIGN_PERSON_AND_ORGANIZATION_ASSIGNMENT ( #114, #198, ( #126 ) ) ;
#192 = CARTESIAN_POINT ( 'NONE',  ( 0.000000000000000000, 0.000000000000000000, 800.0000000000000000 ) ) ;
#193 = LOCAL_TIME ( 12, 26, 15.00000000000000000, #228 ) ;
#194 = CARTESIAN_POINT ( 'NONE',  ( 0.000000000000000000, 0.000000000000000000, 800.0000000000000000 ) ) ;
#195 = ORIENTED_EDGE ( 'NONE', *, *, #139, .T. ) ;
#196 = CC_DESIGN_PERSON_AND_ORGANIZATION_ASSIGNMENT ( #237, #65, ( #23 ) ) ;
#197 = ORIENTED_EDGE ( 'NONE', *, *, #223, .T. ) ;
#198 = PERSON_AND_ORGANIZATION_ROLE ( 'classification_officer' ) ;
#199 = ORIENTED_EDGE ( 'NONE', *, *, #67, .T. ) ;
#200 = DIRECTION ( 'NONE',  ( -0.000000000000000000, -0.000000000000000000, -1.000000000000000000 ) ) ;
#201 = EDGE_CURVE ( 'NONE', #74, #137, #51, .T. ) ;
#202 = DIRECTION ( 'NONE',  ( 1.000000000000000000, 0.000000000000000000, 0.000000000000000000 ) ) ;
#203 = AXIS2_PLACEMENT_3D ( 'NONE', #194, #150, #238 ) ;
#204 = CARTESIAN_POINT ( 'NONE',  ( 0.000000000000000000, 0.000000000000000000, 5.000000000000000000 ) ) ;
#205 = PERSON_AND_ORGANIZATION ( #164, #128 ) ;
#206 = CARTESIAN_POINT ( 'NONE',  ( 0.000000000000000000, 0.000000000000000000, 5.000000000000000000 ) ) ;
#207 = APPROVAL ( #56, 'NEURÈENÝ' ) ;
#208 = APPROVAL_ROLE ( '' ) ;
#209 = DIRECTION ( 'NONE',  ( 1.000000000000000000, 0.000000000000000000, -0.000000000000000000 ) ) ;
#210 = DIRECTION ( 'NONE',  ( -0.000000000000000000, -0.000000000000000000, -1.000000000000000000 ) ) ;
#211 = APPROVAL_DATE_TIME ( #216, #149 ) ;
#212 = DIRECTION ( 'NONE',  ( 1.000000000000000000, 0.000000000000000000, 0.000000000000000000 ) ) ;
#213 = DATE_AND_TIME ( #157, #255 ) ;
#214 = CIRCLE ( 'NONE', #112, 5.000000000000000888 ) ;
#215 = CARTESIAN_POINT ( 'NONE',  ( 0.000000000000000000, 0.000000000000000000, 5.000000000000000000 ) ) ;
#216 = DATE_AND_TIME ( #96, #231 ) ;
#217 =( NAMED_UNIT ( * ) SI_UNIT ( $, .STERADIAN. ) SOLID_ANGLE_UNIT ( ) );
#218 = DIRECTION ( 'NONE',  ( -0.000000000000000000, -0.000000000000000000, -1.000000000000000000 ) ) ;
#219 = ORIENTED_EDGE ( 'NONE', *, *, #139, .F. ) ;
#220 = ORIENTED_EDGE ( 'NONE', *, *, #20, .F. ) ;
#221 = DIRECTION ( 'NONE',  ( 1.000000000000000000, 0.000000000000000000, 0.000000000000000000 ) ) ;
#222 = CC_DESIGN_APPROVAL ( #1, ( #50 ) ) ;
#223 = EDGE_CURVE ( 'NONE', #26, #53, #70, .T. ) ;
#224 = MANIFOLD_SOLID_BREP ( 'Pøidat vysunutím3', #77 ) ;
#225 = COORDINATED_UNIVERSAL_TIME_OFFSET ( 1, 0, .AHEAD. ) ;
#226 = CARTESIAN_POINT ( 'NONE',  ( 5.000000000000000888, 6.123233995736767268E-16, 800.0000000000000000 ) ) ;
#227 = DIRECTION ( 'NONE',  ( 0.000000000000000000, 0.000000000000000000, 1.000000000000000000 ) ) ;
#228 = COORDINATED_UNIVERSAL_TIME_OFFSET ( 1, 0, .AHEAD. ) ;
#229 = CC_DESIGN_PERSON_AND_ORGANIZATION_ASSIGNMENT ( #234, #42, ( #50 ) ) ;
#230 = LINE ( 'NONE', #108, #106 ) ;
#231 = LOCAL_TIME ( 12, 26, 15.00000000000000000, #62 ) ;
#232 = CARTESIAN_POINT ( 'NONE',  ( -8.000000000000000000, 0.000000000000000000, 5.000000000000000000 ) ) ;
#233 = APPROVAL_ROLE ( '' ) ;
#234 = PERSON_AND_ORGANIZATION ( #164, #128 ) ;
#235 = DIRECTION ( 'NONE',  ( 0.000000000000000000, 0.000000000000000000, 1.000000000000000000 ) ) ;
#236 = AXIS2_PLACEMENT_3D ( 'NONE', #215, #130, #170 ) ;
#237 = PERSON_AND_ORGANIZATION ( #164, #128 ) ;
#238 = DIRECTION ( 'NONE',  ( 1.000000000000000000, 0.000000000000000000, 0.000000000000000000 ) ) ;
#239 = PERSON_AND_ORGANIZATION_ROLE ( 'creator' ) ;
#240 = VECTOR ( 'NONE', #210, 1000.000000000000000 ) ;
#241 = CC_DESIGN_APPROVAL ( #207, ( #23 ) ) ;
#242 = CYLINDRICAL_SURFACE ( 'NONE', #61, 5.000000000000000888 ) ;
#243 = ORIENTED_EDGE ( 'NONE', *, *, #201, .T. ) ;
#244 = AXIS2_PLACEMENT_3D ( 'NONE', #192, #100, #175 ) ;
#245 = EDGE_LOOP ( 'NONE', ( #84, #72, #68, #176 ) ) ;
#246 = ORIENTED_EDGE ( 'NONE', *, *, #223, .F. ) ;
#247 = VECTOR ( 'NONE', #218, 1000.000000000000000 ) ;
#248 = CC_DESIGN_APPROVAL ( #149, ( #126 ) ) ;
#249 = DATE_AND_TIME ( #16, #193 ) ;
#250 = APPLICATION_PROTOCOL_DEFINITION ( 'international standard', 'config_control_design', 1994, #64 ) ;
#251 = ADVANCED_FACE ( 'NONE', ( #63 ), #27, .T. ) ;
#252 = CIRCLE ( 'NONE', #104, 8.000000000000000000 ) ;
#253 = DIRECTION ( 'NONE',  ( -1.000000000000000000, 0.000000000000000000, 0.000000000000000000 ) ) ;
#254 = ORIENTED_EDGE ( 'NONE', *, *, #44, .T. ) ;
#255 = LOCAL_TIME ( 12, 26, 15.00000000000000000, #33 ) ;
ENDSEC;
END-ISO-10303-21;
