ISO-10303-21;
HEADER;
FILE_DESCRIPTION (( 'STEP AP203' ),
    '1' );
FILE_NAME ('87f4.STEP',
    '2022-07-07T09:31:38',
    ( '' ),
    ( '' ),
    'SwSTEP 2.0',
    'SolidWorks 2019',
    '' );
FILE_SCHEMA (( 'CONFIG_CONTROL_DESIGN' ));
ENDSEC;

DATA;
#1 = PERSON_AND_ORGANIZATION ( #167, #151 ) ;
#2 = ORIENTED_EDGE ( 'NONE', *, *, #127, .T. ) ;
#3 = DIRECTION ( 'NONE',  ( 1.000000000000000000, 0.000000000000000000, 0.000000000000000000 ) ) ;
#4 = AXIS2_PLACEMENT_3D ( 'NONE', #132, #232, #130 ) ;
#5 = PLANE ( 'NONE',  #23 ) ;
#6 = DIRECTION ( 'NONE',  ( 0.000000000000000000, 0.000000000000000000, 1.000000000000000000 ) ) ;
#7 = CARTESIAN_POINT ( 'NONE',  ( 16.00000000000000000, 1.959434878635765131E-15, 0.000000000000000000 ) ) ;
#8 = VECTOR ( 'NONE', #301, 1000.000000000000000 ) ;
#9 = DIRECTION ( 'NONE',  ( 0.000000000000000000, 0.000000000000000000, 1.000000000000000000 ) ) ;
#10 = DIRECTION ( 'NONE',  ( 0.000000000000000000, 0.000000000000000000, 1.000000000000000000 ) ) ;
#11 = CC_DESIGN_PERSON_AND_ORGANIZATION_ASSIGNMENT ( #139, #41, ( #118 ) ) ;
#12 = CIRCLE ( 'NONE', #133, 12.50000000000000000 ) ;
#13 = CARTESIAN_POINT ( 'NONE',  ( 0.000000000000000000, 0.000000000000000000, 325.0000000000000000 ) ) ;
#14 = DIRECTION ( 'NONE',  ( 0.000000000000000000, 0.000000000000000000, 1.000000000000000000 ) ) ;
#15 = ADVANCED_FACE ( 'NONE', ( #297 ), #153, .T. ) ;
#16 = CARTESIAN_POINT ( 'NONE',  ( 0.000000000000000000, 0.000000000000000000, 325.0000000000000000 ) ) ;
#17 = DATE_AND_TIME ( #307, #247 ) ;
#18 = EDGE_LOOP ( 'NONE', ( #116, #21 ) ) ;
#19 = ADVANCED_FACE ( 'NONE', ( #78 ), #5, .T. ) ;
#20 = CALENDAR_DATE ( 2022, 7, 7 ) ;
#21 = ORIENTED_EDGE ( 'NONE', *, *, #136, .T. ) ;
#22 = APPROVAL_ROLE ( '' ) ;
#23 = AXIS2_PLACEMENT_3D ( 'NONE', #253, #270, #72 ) ;
#24 = AXIS2_PLACEMENT_3D ( 'NONE', #261, #10, #108 ) ;
#25 = CC_DESIGN_DATE_AND_TIME_ASSIGNMENT ( #215, #263, ( #87 ) ) ;
#26 = DATE_AND_TIME ( #243, #177 ) ;
#27 = ORIENTED_EDGE ( 'NONE', *, *, #47, .T. ) ;
#28 = ORIENTED_EDGE ( 'NONE', *, *, #127, .F. ) ;
#29 = VERTEX_POINT ( 'NONE', #7 ) ;
#30 = ORIENTED_EDGE ( 'NONE', *, *, #182, .T. ) ;
#31 = EDGE_LOOP ( 'NONE', ( #195, #125, #228, #180 ) ) ;
#32 = MANIFOLD_SOLID_BREP ( 'Zaoblit1', #236 ) ;
#33 = APPROVAL ( #43, 'NEURÈENÝ' ) ;
#34 = DIRECTION ( 'NONE',  ( -0.000000000000000000, -0.000000000000000000, -1.000000000000000000 ) ) ;
#35 = CARTESIAN_POINT ( 'NONE',  ( -12.50000000000000000, 0.000000000000000000, 10.19999999999998685 ) ) ;
#36 = CC_DESIGN_APPROVAL ( #65, ( #118 ) ) ;
#37 = DIRECTION ( 'NONE',  ( -0.000000000000000000, -0.000000000000000000, -1.000000000000000000 ) ) ;
#38 = FACE_OUTER_BOUND ( 'NONE', #31, .T. ) ;
#39 = APPROVAL_DATE_TIME ( #46, #65 ) ;
#40 = CIRCLE ( 'NONE', #48, 16.00000000000000000 ) ;
#41 = PERSON_AND_ORGANIZATION_ROLE ( 'design_supplier' ) ;
#42 = CIRCLE ( 'NONE', #222, 12.50000000000000000 ) ;
#43 = APPROVAL_STATUS ( 'not_yet_approved' ) ;
#44 = COORDINATED_UNIVERSAL_TIME_OFFSET ( 1, 0, .AHEAD. ) ;
#45 = ORIENTED_EDGE ( 'NONE', *, *, #147, .F. ) ;
#46 = DATE_AND_TIME ( #235, #193 ) ;
#47 = EDGE_CURVE ( 'NONE', #29, #294, #57, .T. ) ;
#48 = AXIS2_PLACEMENT_3D ( 'NONE', #207, #59, #58 ) ;
#49 = EDGE_LOOP ( 'NONE', ( #214, #45, #126, #197 ) ) ;
#50 = SHAPE_DEFINITION_REPRESENTATION ( #96, #95 ) ;
#51 = ORIENTED_EDGE ( 'NONE', *, *, #147, .T. ) ;
#52 = ORIENTED_EDGE ( 'NONE', *, *, #131, .F. ) ;
#53 = CARTESIAN_POINT ( 'NONE',  ( 0.000000000000000000, 0.000000000000000000, 0.000000000000000000 ) ) ;
#54 = DIRECTION ( 'NONE',  ( 1.000000000000000000, 0.000000000000000000, 0.000000000000000000 ) ) ;
#55 = EDGE_LOOP ( 'NONE', ( #242, #102, #2, #205 ) ) ;
#56 = CARTESIAN_POINT ( 'NONE',  ( 0.000000000000000000, 0.000000000000000000, 325.0000000000000000 ) ) ;
#57 = CIRCLE ( 'NONE', #188, 16.00000000000000000 ) ;
#58 = DIRECTION ( 'NONE',  ( 1.000000000000000000, 0.000000000000000000, 0.000000000000000000 ) ) ;
#59 = DIRECTION ( 'NONE',  ( 0.000000000000000000, 0.000000000000000000, 1.000000000000000000 ) ) ;
#60 = DIRECTION ( 'NONE',  ( 0.000000000000000000, 0.000000000000000000, 1.000000000000000000 ) ) ;
#61 = CC_DESIGN_SECURITY_CLASSIFICATION ( #194, ( #118 ) ) ;
#62 = AXIS2_PLACEMENT_3D ( 'NONE', #109, #300, #83 ) ;
#63 = CARTESIAN_POINT ( 'NONE',  ( 0.000000000000000000, 0.000000000000000000, 10.00000000000000000 ) ) ;
#64 = CARTESIAN_POINT ( 'NONE',  ( 12.50000000000000000, 1.530808498934191521E-15, 325.0000000000000000 ) ) ;
#65 = APPROVAL ( #213, 'NEURÈENÝ' ) ;
#66 = AXIS2_PLACEMENT_3D ( 'NONE', #56, #275, #221 ) ;
#67 = APPROVAL_STATUS ( 'not_yet_approved' ) ;
#68 =( GEOMETRIC_REPRESENTATION_CONTEXT ( 3 ) GLOBAL_UNCERTAINTY_ASSIGNED_CONTEXT ( ( #200 ) ) GLOBAL_UNIT_ASSIGNED_CONTEXT ( ( #121, #238, #168 ) ) REPRESENTATION_CONTEXT ( 'NONE', 'WORKASPACE' ) );
#69 = DIRECTION ( 'NONE',  ( 1.000000000000000000, 0.000000000000000000, 0.000000000000000000 ) ) ;
#70 = CC_DESIGN_PERSON_AND_ORGANIZATION_ASSIGNMENT ( #1, #71, ( #194 ) ) ;
#71 = PERSON_AND_ORGANIZATION_ROLE ( 'classification_officer' ) ;
#72 = DIRECTION ( 'NONE',  ( 1.000000000000000000, 0.000000000000000000, -0.000000000000000000 ) ) ;
#73 = PLANE ( 'NONE',  #272 ) ;
#74 = EDGE_CURVE ( 'NONE', #294, #29, #286, .T. ) ;
#75 = ORIENTED_EDGE ( 'NONE', *, *, #113, .T. ) ;
#76 = APPLICATION_CONTEXT ( 'configuration controlled 3d designs of mechanical parts and assemblies' ) ;
#77 = CIRCLE ( 'NONE', #144, 0.2000000000000005107 ) ;
#78 = FACE_OUTER_BOUND ( 'NONE', #80, .T. ) ;
#79 = ADVANCED_FACE ( 'NONE', ( #204 ), #176, .F. ) ;
#80 = EDGE_LOOP ( 'NONE', ( #155, #216 ) ) ;
#81 = CYLINDRICAL_SURFACE ( 'NONE', #62, 16.00000000000000000 ) ;
#82 = CIRCLE ( 'NONE', #259, 0.2000000000000005107 ) ;
#83 = DIRECTION ( 'NONE',  ( -1.000000000000000000, 0.000000000000000000, 0.000000000000000000 ) ) ;
#84 = CARTESIAN_POINT ( 'NONE',  ( 12.70000000000000107, 0.000000000000000000, 9.999999999999992895 ) ) ;
#85 = DIRECTION ( 'NONE',  ( 1.000000000000000000, 0.000000000000000000, 0.000000000000000000 ) ) ;
#86 = PLANE ( 'NONE',  #226 ) ;
#87 = PRODUCT_DEFINITION ( 'NEZNÁMÝ', '', #118, #250 ) ;
#88 = PERSON_AND_ORGANIZATION ( #167, #151 ) ;
#89 = DATE_TIME_ROLE ( 'classification_date' ) ;
#90 = APPLICATION_CONTEXT ( 'configuration controlled 3d designs of mechanical parts and assemblies' ) ;
#91 = ORIENTED_EDGE ( 'NONE', *, *, #182, .F. ) ;
#92 = CIRCLE ( 'NONE', #227, 12.50000000000000000 ) ;
#93 = PERSON_AND_ORGANIZATION ( #167, #151 ) ;
#94 = VERTEX_POINT ( 'NONE', #268 ) ;
#95 = ADVANCED_BREP_SHAPE_REPRESENTATION ( '87f4', ( #32, #271 ), #68 ) ;
#96 = PRODUCT_DEFINITION_SHAPE ( 'NONE', 'NONE',  #87 ) ;
#97 = PERSON_AND_ORGANIZATION ( #167, #151 ) ;
#98 = ORIENTED_EDGE ( 'NONE', *, *, #106, .F. ) ;
#99 = COORDINATED_UNIVERSAL_TIME_OFFSET ( 1, 0, .AHEAD. ) ;
#100 = AXIS2_PLACEMENT_3D ( 'NONE', #63, #255, #230 ) ;
#101 = CARTESIAN_POINT ( 'NONE',  ( 0.000000000000000000, 0.000000000000000000, 10.19999999999998685 ) ) ;
#102 = ORIENTED_EDGE ( 'NONE', *, *, #161, .T. ) ;
#103 = ORIENTED_EDGE ( 'NONE', *, *, #74, .F. ) ;
#104 = TOROIDAL_SURFACE ( 'NONE', #24, 12.70000000000000107, 0.2000000000000000111 ) ;
#105 = DIRECTION ( 'NONE',  ( 1.000000000000000000, 0.000000000000000000, 0.000000000000000000 ) ) ;
#106 = EDGE_CURVE ( 'NONE', #174, #244, #77, .T. ) ;
#107 = ORIENTED_EDGE ( 'NONE', *, *, #274, .T. ) ;
#108 = DIRECTION ( 'NONE',  ( 1.000000000000000000, 0.000000000000000000, 0.000000000000000000 ) ) ;
#109 = CARTESIAN_POINT ( 'NONE',  ( 0.000000000000000000, 0.000000000000000000, 10.00000000000000000 ) ) ;
#110 = DIRECTION ( 'NONE',  ( -1.000000000000000000, 0.000000000000000000, 0.000000000000000000 ) ) ;
#111 = DIRECTION ( 'NONE',  ( 1.000000000000000000, 0.000000000000000000, 0.000000000000000000 ) ) ;
#112 = DIRECTION ( 'NONE',  ( 1.000000000000000000, 0.000000000000000000, 0.000000000000000000 ) ) ;
#113 = EDGE_CURVE ( 'NONE', #245, #29, #128, .T. ) ;
#114 = CARTESIAN_POINT ( 'NONE',  ( 12.70000000000000107, 0.000000000000000000, 10.19999999999998685 ) ) ;
#115 = DIRECTION ( 'NONE',  ( 0.000000000000000000, 0.000000000000000000, 1.000000000000000000 ) ) ;
#116 = ORIENTED_EDGE ( 'NONE', *, *, #229, .T. ) ;
#117 = VERTEX_POINT ( 'NONE', #224 ) ;
#118 = PRODUCT_DEFINITION_FORMATION_WITH_SPECIFIED_SOURCE ( 'LIBOVOLNÝ', '', #219, .NOT_KNOWN. ) ;
#119 = COORDINATED_UNIVERSAL_TIME_OFFSET ( 1, 0, .AHEAD. ) ;
#120 = LOCAL_TIME ( 11, 31, 38.00000000000000000, #99 ) ;
#121 =( LENGTH_UNIT ( ) NAMED_UNIT ( * ) SI_UNIT ( .MILLI., .METRE. ) );
#122 = APPROVAL_ROLE ( '' ) ;
#123 = ADVANCED_FACE ( 'NONE', ( #124 ), #73, .F. ) ;
#124 = FACE_OUTER_BOUND ( 'NONE', #239, .T. ) ;
#125 = ORIENTED_EDGE ( 'NONE', *, *, #237, .F. ) ;
#126 = ORIENTED_EDGE ( 'NONE', *, *, #131, .T. ) ;
#127 = EDGE_CURVE ( 'NONE', #273, #174, #217, .T. ) ;
#128 = LINE ( 'NONE', #276, #203 ) ;
#129 = CARTESIAN_POINT ( 'NONE',  ( -12.50000000000000000, 0.000000000000000000, 325.0000000000000000 ) ) ;
#130 = DIRECTION ( 'NONE',  ( 1.000000000000000000, 0.000000000000000000, 0.000000000000000000 ) ) ;
#131 = EDGE_CURVE ( 'NONE', #117, #294, #209, .T. ) ;
#132 = CARTESIAN_POINT ( 'NONE',  ( 0.000000000000000000, 0.000000000000000000, 10.00000000000000000 ) ) ;
#133 = AXIS2_PLACEMENT_3D ( 'NONE', #13, #208, #186 ) ;
#134 = CARTESIAN_POINT ( 'NONE',  ( 0.000000000000000000, 0.000000000000000000, 10.19999999999998685 ) ) ;
#135 = DIRECTION ( 'NONE',  ( 1.000000000000000000, 0.000000000000000000, 0.000000000000000000 ) ) ;
#136 = EDGE_CURVE ( 'NONE', #244, #140, #266, .T. ) ;
#137 = PERSON_AND_ORGANIZATION_ROLE ( 'creator' ) ;
#138 = VECTOR ( 'NONE', #277, 1000.000000000000000 ) ;
#139 = PERSON_AND_ORGANIZATION ( #167, #151 ) ;
#140 = VERTEX_POINT ( 'NONE', #84 ) ;
#141 = CC_DESIGN_PERSON_AND_ORGANIZATION_ASSIGNMENT ( #97, #165, ( #219 ) ) ;
#142 = APPROVAL_DATE_TIME ( #265, #33 ) ;
#143 = ORIENTED_EDGE ( 'NONE', *, *, #106, .T. ) ;
#144 = AXIS2_PLACEMENT_3D ( 'NONE', #154, #179, #251 ) ;
#145 = COORDINATED_UNIVERSAL_TIME_OFFSET ( 1, 0, .AHEAD. ) ;
#146 = EDGE_LOOP ( 'NONE', ( #169, #143, #223, #201 ) ) ;
#147 = EDGE_CURVE ( 'NONE', #117, #245, #40, .T. ) ;
#148 = DIRECTION ( 'NONE',  ( 0.000000000000000000, 0.000000000000000000, 1.000000000000000000 ) ) ;
#149 = AXIS2_PLACEMENT_3D ( 'NONE', #234, #34, #85 ) ;
#150 = VECTOR ( 'NONE', #37, 1000.000000000000000 ) ;
#151 = ORGANIZATION ( 'NEURÈENÝ', 'NEURÈENÝ', '' ) ;
#152 = DIRECTION ( 'NONE',  ( 0.000000000000000000, 0.000000000000000000, 1.000000000000000000 ) ) ;
#153 = CYLINDRICAL_SURFACE ( 'NONE', #66, 12.50000000000000000 ) ;
#154 = CARTESIAN_POINT ( 'NONE',  ( -12.70000000000000107, 1.555301434917138630E-15, 10.19999999999998685 ) ) ;
#155 = ORIENTED_EDGE ( 'NONE', *, *, #237, .T. ) ;
#156 = CARTESIAN_POINT ( 'NONE',  ( 0.000000000000000000, 0.000000000000000000, 325.0000000000000000 ) ) ;
#157 = EDGE_CURVE ( 'NONE', #94, #174, #162, .T. ) ;
#158 = DIRECTION ( 'NONE',  ( -1.000000000000000000, 0.000000000000000000, 0.000000000000000000 ) ) ;
#159 = DIRECTION ( 'NONE',  ( -0.000000000000000000, -0.000000000000000000, -1.000000000000000000 ) ) ;
#160 = CIRCLE ( 'NONE', #149, 12.70000000000000107 ) ;
#161 = EDGE_CURVE ( 'NONE', #173, #273, #260, .T. ) ;
#162 = LINE ( 'NONE', #129, #150 ) ;
#163 = DIRECTION ( 'NONE',  ( 1.000000000000000000, 0.000000000000000000, -0.000000000000000000 ) ) ;
#164 = CALENDAR_DATE ( 2022, 7, 7 ) ;
#165 = PERSON_AND_ORGANIZATION_ROLE ( 'design_owner' ) ;
#166 = EDGE_CURVE ( 'NONE', #174, #273, #92, .T. ) ;
#167 = PERSON ( 'NEURÈENÝ', 'NEURÈENÝ', 'NEURÈENÝ', ('NEURÈENÝ'), ('NEURÈENÝ'), ('NEURÈENÝ') ) ;
#168 =( NAMED_UNIT ( * ) SI_UNIT ( $, .STERADIAN. ) SOLID_ANGLE_UNIT ( ) );
#169 = ORIENTED_EDGE ( 'NONE', *, *, #166, .F. ) ;
#170 = CIRCLE ( 'NONE', #4, 16.00000000000000000 ) ;
#171 = COORDINATED_UNIVERSAL_TIME_OFFSET ( 1, 0, .AHEAD. ) ;
#172 = ADVANCED_FACE ( 'NONE', ( #38 ), #185, .T. ) ;
#173 = VERTEX_POINT ( 'NONE', #64 ) ;
#174 = VERTEX_POINT ( 'NONE', #35 ) ;
#175 = APPROVAL_PERSON_ORGANIZATION ( #93, #269, #122 ) ;
#176 = TOROIDAL_SURFACE ( 'NONE', #281, 12.70000000000000107, 0.2000000000000000111 ) ;
#177 = LOCAL_TIME ( 11, 31, 38.00000000000000000, #145 ) ;
#178 = CARTESIAN_POINT ( 'NONE',  ( 0.000000000000000000, 0.000000000000000000, 0.000000000000000000 ) ) ;
#179 = DIRECTION ( 'NONE',  ( 1.224646799147353207E-16, 1.000000000000000000, -0.000000000000000000 ) ) ;
#180 = ORIENTED_EDGE ( 'NONE', *, *, #166, .T. ) ;
#181 = FACE_BOUND ( 'NONE', #18, .T. ) ;
#182 = EDGE_CURVE ( 'NONE', #245, #117, #170, .T. ) ;
#183 = AXIS2_PLACEMENT_3D ( 'NONE', #156, #254, #110 ) ;
#184 = CARTESIAN_POINT ( 'NONE',  ( 12.50000000000000000, 1.530808498934191521E-15, 10.19999999999998685 ) ) ;
#185 = CYLINDRICAL_SURFACE ( 'NONE', #183, 12.50000000000000000 ) ;
#186 = DIRECTION ( 'NONE',  ( 1.000000000000000000, 0.000000000000000000, 0.000000000000000000 ) ) ;
#187 = AXIS2_PLACEMENT_3D ( 'NONE', #302, #159, #158 ) ;
#188 = AXIS2_PLACEMENT_3D ( 'NONE', #178, #152, #54 ) ;
#189 = CARTESIAN_POINT ( 'NONE',  ( 0.000000000000000000, 0.000000000000000000, 10.00000000000000000 ) ) ;
#190 = SECURITY_CLASSIFICATION_LEVEL ( 'unclassified' ) ;
#191 = APPLICATION_PROTOCOL_DEFINITION ( 'international standard', 'config_control_design', 1994, #90 ) ;
#192 = EDGE_LOOP ( 'NONE', ( #51, #30 ) ) ;
#193 = LOCAL_TIME ( 11, 31, 38.00000000000000000, #119 ) ;
#194 = SECURITY_CLASSIFICATION ( '', '', #190 ) ;
#195 = ORIENTED_EDGE ( 'NONE', *, *, #161, .F. ) ;
#196 = PRODUCT_RELATED_PRODUCT_CATEGORY ( 'detail', '', ( #219 ) ) ;
#197 = ORIENTED_EDGE ( 'NONE', *, *, #74, .T. ) ;
#198 = DIRECTION ( 'NONE',  ( -0.000000000000000000, -0.000000000000000000, -1.000000000000000000 ) ) ;
#199 = CARTESIAN_POINT ( 'NONE',  ( 0.000000000000000000, 0.000000000000000000, 0.000000000000000000 ) ) ;
#200 = UNCERTAINTY_MEASURE_WITH_UNIT (LENGTH_MEASURE( 1.000000000000000082E-05 ), #121, 'distance_accuracy_value', 'NONE');
#201 = ORIENTED_EDGE ( 'NONE', *, *, #274, .F. ) ;
#202 = EDGE_CURVE ( 'NONE', #173, #94, #42, .T. ) ;
#203 = VECTOR ( 'NONE', #198, 1000.000000000000000 ) ;
#204 = FACE_OUTER_BOUND ( 'NONE', #249, .T. ) ;
#205 = ORIENTED_EDGE ( 'NONE', *, *, #157, .F. ) ;
#206 = ADVANCED_FACE ( 'NONE', ( #233 ), #210, .T. ) ;
#207 = CARTESIAN_POINT ( 'NONE',  ( 0.000000000000000000, 0.000000000000000000, 10.00000000000000000 ) ) ;
#208 = DIRECTION ( 'NONE',  ( 0.000000000000000000, 0.000000000000000000, 1.000000000000000000 ) ) ;
#209 = LINE ( 'NONE', #257, #8 ) ;
#210 = CYLINDRICAL_SURFACE ( 'NONE', #187, 16.00000000000000000 ) ;
#211 = CARTESIAN_POINT ( 'NONE',  ( 16.00000000000000000, 1.959434878635765131E-15, 10.00000000000000000 ) ) ;
#212 = CARTESIAN_POINT ( 'NONE',  ( 0.000000000000000000, 0.000000000000000000, 0.000000000000000000 ) ) ;
#213 = APPROVAL_STATUS ( 'not_yet_approved' ) ;
#214 = ORIENTED_EDGE ( 'NONE', *, *, #113, .F. ) ;
#215 = DATE_AND_TIME ( #164, #120 ) ;
#216 = ORIENTED_EDGE ( 'NONE', *, *, #202, .T. ) ;
#217 = CIRCLE ( 'NONE', #258, 12.50000000000000000 ) ;
#218 = APPLICATION_PROTOCOL_DEFINITION ( 'international standard', 'config_control_design', 1994, #76 ) ;
#219 = PRODUCT ( '87f4', '87f4', '', ( #241 ) ) ;
#220 = PERSON_AND_ORGANIZATION ( #167, #151 ) ;
#221 = DIRECTION ( 'NONE',  ( -1.000000000000000000, 0.000000000000000000, 0.000000000000000000 ) ) ;
#222 = AXIS2_PLACEMENT_3D ( 'NONE', #16, #60, #135 ) ;
#223 = ORIENTED_EDGE ( 'NONE', *, *, #229, .F. ) ;
#224 = CARTESIAN_POINT ( 'NONE',  ( -16.00000000000000000, 0.000000000000000000, 10.00000000000000000 ) ) ;
#225 = ORIENTED_EDGE ( 'NONE', *, *, #136, .F. ) ;
#226 = AXIS2_PLACEMENT_3D ( 'NONE', #189, #283, #163 ) ;
#227 = AXIS2_PLACEMENT_3D ( 'NONE', #134, #14, #112 ) ;
#228 = ORIENTED_EDGE ( 'NONE', *, *, #157, .T. ) ;
#229 = EDGE_CURVE ( 'NONE', #140, #244, #160, .T. ) ;
#230 = DIRECTION ( 'NONE',  ( 1.000000000000000000, 0.000000000000000000, 0.000000000000000000 ) ) ;
#231 = FACE_OUTER_BOUND ( 'NONE', #146, .T. ) ;
#232 = DIRECTION ( 'NONE',  ( 0.000000000000000000, 0.000000000000000000, 1.000000000000000000 ) ) ;
#233 = FACE_OUTER_BOUND ( 'NONE', #49, .T. ) ;
#234 = CARTESIAN_POINT ( 'NONE',  ( 0.000000000000000000, 0.000000000000000000, 10.00000000000000000 ) ) ;
#235 = CALENDAR_DATE ( 2022, 7, 7 ) ;
#236 = CLOSED_SHELL ( 'NONE', ( #256, #15, #262, #206, #246, #123, #172, #19, #79 ) ) ;
#237 = EDGE_CURVE ( 'NONE', #94, #173, #12, .T. ) ;
#238 =( NAMED_UNIT ( * ) PLANE_ANGLE_UNIT ( ) SI_UNIT ( $, .RADIAN. ) );
#239 = EDGE_LOOP ( 'NONE', ( #103, #288 ) ) ;
#240 = PERSON_AND_ORGANIZATION_ROLE ( 'creator' ) ;
#241 = MECHANICAL_CONTEXT ( 'NONE', #90, 'mechanical' ) ;
#242 = ORIENTED_EDGE ( 'NONE', *, *, #202, .F. ) ;
#243 = CALENDAR_DATE ( 2022, 7, 7 ) ;
#244 = VERTEX_POINT ( 'NONE', #280 ) ;
#245 = VERTEX_POINT ( 'NONE', #211 ) ;
#246 = ADVANCED_FACE ( 'NONE', ( #181, #304 ), #86, .T. ) ;
#247 = LOCAL_TIME ( 11, 31, 38.00000000000000000, #171 ) ;
#248 = DIRECTION ( 'NONE',  ( 1.000000000000000000, 0.000000000000000000, -0.000000000000000000 ) ) ;
#249 = EDGE_LOOP ( 'NONE', ( #98, #28, #107, #225 ) ) ;
#250 = DESIGN_CONTEXT ( 'detailed design', #76, 'design' ) ;
#251 = DIRECTION ( 'NONE',  ( -1.000000000000000000, 1.224646799147353207E-16, 0.000000000000000000 ) ) ;
#252 = CC_DESIGN_DATE_AND_TIME_ASSIGNMENT ( #17, #89, ( #194 ) ) ;
#253 = CARTESIAN_POINT ( 'NONE',  ( 0.000000000000000000, 0.000000000000000000, 325.0000000000000000 ) ) ;
#254 = DIRECTION ( 'NONE',  ( -0.000000000000000000, -0.000000000000000000, -1.000000000000000000 ) ) ;
#255 = DIRECTION ( 'NONE',  ( -0.000000000000000000, -0.000000000000000000, -1.000000000000000000 ) ) ;
#256 = ADVANCED_FACE ( 'NONE', ( #231 ), #104, .F. ) ;
#257 = CARTESIAN_POINT ( 'NONE',  ( -16.00000000000000000, 0.000000000000000000, 10.00000000000000000 ) ) ;
#258 = AXIS2_PLACEMENT_3D ( 'NONE', #298, #292, #111 ) ;
#259 = AXIS2_PLACEMENT_3D ( 'NONE', #114, #285, #284 ) ;
#260 = LINE ( 'NONE', #278, #138 ) ;
#261 = CARTESIAN_POINT ( 'NONE',  ( 0.000000000000000000, 0.000000000000000000, 10.19999999999998685 ) ) ;
#262 = ADVANCED_FACE ( 'NONE', ( #299 ), #81, .T. ) ;
#263 = DATE_TIME_ROLE ( 'creation_date' ) ;
#264 = CC_DESIGN_APPROVAL ( #269, ( #194 ) ) ;
#265 = DATE_AND_TIME ( #20, #282 ) ;
#266 = CIRCLE ( 'NONE', #100, 12.70000000000000107 ) ;
#267 = APPROVAL_DATE_TIME ( #26, #269 ) ;
#268 = CARTESIAN_POINT ( 'NONE',  ( -12.50000000000000000, 0.000000000000000000, 325.0000000000000000 ) ) ;
#269 = APPROVAL ( #67, 'NEURÈENÝ' ) ;
#270 = DIRECTION ( 'NONE',  ( 0.000000000000000000, 0.000000000000000000, 1.000000000000000000 ) ) ;
#271 = AXIS2_PLACEMENT_3D ( 'NONE', #212, #115, #69 ) ;
#272 = AXIS2_PLACEMENT_3D ( 'NONE', #53, #6, #248 ) ;
#273 = VERTEX_POINT ( 'NONE', #184 ) ;
#274 = EDGE_CURVE ( 'NONE', #273, #140, #82, .T. ) ;
#275 = DIRECTION ( 'NONE',  ( -0.000000000000000000, -0.000000000000000000, -1.000000000000000000 ) ) ;
#276 = CARTESIAN_POINT ( 'NONE',  ( 16.00000000000000000, 1.959434878635765131E-15, 10.00000000000000000 ) ) ;
#277 = DIRECTION ( 'NONE',  ( -0.000000000000000000, -0.000000000000000000, -1.000000000000000000 ) ) ;
#278 = CARTESIAN_POINT ( 'NONE',  ( 12.50000000000000000, 1.530808498934191521E-15, 325.0000000000000000 ) ) ;
#279 = CC_DESIGN_APPROVAL ( #33, ( #87 ) ) ;
#280 = CARTESIAN_POINT ( 'NONE',  ( -12.70000000000000107, 1.555301434917138630E-15, 9.999999999999992895 ) ) ;
#281 = AXIS2_PLACEMENT_3D ( 'NONE', #101, #148, #3 ) ;
#282 = LOCAL_TIME ( 11, 31, 38.00000000000000000, #44 ) ;
#283 = DIRECTION ( 'NONE',  ( 0.000000000000000000, 0.000000000000000000, 1.000000000000000000 ) ) ;
#284 = DIRECTION ( 'NONE',  ( 0.000000000000000000, 0.000000000000000000, -1.000000000000000000 ) ) ;
#285 = DIRECTION ( 'NONE',  ( 0.000000000000000000, -1.000000000000000000, 0.000000000000000000 ) ) ;
#286 = CIRCLE ( 'NONE', #296, 16.00000000000000000 ) ;
#287 = APPROVAL_PERSON_ORGANIZATION ( #305, #33, #306 ) ;
#288 = ORIENTED_EDGE ( 'NONE', *, *, #47, .F. ) ;
#289 = CARTESIAN_POINT ( 'NONE',  ( -16.00000000000000000, 0.000000000000000000, 0.000000000000000000 ) ) ;
#290 = PERSON_AND_ORGANIZATION ( #167, #151 ) ;
#291 = CC_DESIGN_PERSON_AND_ORGANIZATION_ASSIGNMENT ( #88, #240, ( #87 ) ) ;
#292 = DIRECTION ( 'NONE',  ( 0.000000000000000000, 0.000000000000000000, 1.000000000000000000 ) ) ;
#293 = EDGE_LOOP ( 'NONE', ( #91, #75, #27, #52 ) ) ;
#294 = VERTEX_POINT ( 'NONE', #289 ) ;
#295 = APPROVAL_PERSON_ORGANIZATION ( #220, #65, #22 ) ;
#296 = AXIS2_PLACEMENT_3D ( 'NONE', #199, #9, #105 ) ;
#297 = FACE_OUTER_BOUND ( 'NONE', #55, .T. ) ;
#298 = CARTESIAN_POINT ( 'NONE',  ( 0.000000000000000000, 0.000000000000000000, 10.19999999999998685 ) ) ;
#299 = FACE_OUTER_BOUND ( 'NONE', #293, .T. ) ;
#300 = DIRECTION ( 'NONE',  ( -0.000000000000000000, -0.000000000000000000, -1.000000000000000000 ) ) ;
#301 = DIRECTION ( 'NONE',  ( -0.000000000000000000, -0.000000000000000000, -1.000000000000000000 ) ) ;
#302 = CARTESIAN_POINT ( 'NONE',  ( 0.000000000000000000, 0.000000000000000000, 10.00000000000000000 ) ) ;
#303 = CC_DESIGN_PERSON_AND_ORGANIZATION_ASSIGNMENT ( #290, #137, ( #118 ) ) ;
#304 = FACE_OUTER_BOUND ( 'NONE', #192, .T. ) ;
#305 = PERSON_AND_ORGANIZATION ( #167, #151 ) ;
#306 = APPROVAL_ROLE ( '' ) ;
#307 = CALENDAR_DATE ( 2022, 7, 7 ) ;
ENDSEC;
END-ISO-10303-21;
