ISO-10303-21;
HEADER;
FILE_DESCRIPTION (( 'STEP AP203' ),
    '1' );
FILE_NAME ('02fe.STEP',
    '2023-02-12T11:14:22',
    ( '' ),
    ( '' ),
    'SwSTEP 2.0',
    'SolidWorks 2019',
    '' );
FILE_SCHEMA (( 'CONFIG_CONTROL_DESIGN' ));
ENDSEC;

DATA;
#1 = LOCAL_TIME ( 12, 14, 22.00000000000000000, #227 ) ;
#2 = COORDINATED_UNIVERSAL_TIME_OFFSET ( 1, 0, .AHEAD. ) ;
#3 = CARTESIAN_POINT ( 'NONE',  ( -5.500000000000000000, 0.000000000000000000, 5.000000000000000000 ) ) ;
#4 = DIRECTION ( 'NONE',  ( 1.000000000000000000, 0.000000000000000000, 0.000000000000000000 ) ) ;
#5 = DIRECTION ( 'NONE',  ( -0.000000000000000000, -0.000000000000000000, -1.000000000000000000 ) ) ;
#6 = APPROVAL_PERSON_ORGANIZATION ( #175, #64, #229 ) ;
#7 = CC_DESIGN_PERSON_AND_ORGANIZATION_ASSIGNMENT ( #13, #97, ( #124 ) ) ;
#8 = DIRECTION ( 'NONE',  ( -1.000000000000000000, 0.000000000000000000, 0.000000000000000000 ) ) ;
#9 = VERTEX_POINT ( 'NONE', #3 ) ;
#10 = LOCAL_TIME ( 12, 14, 22.00000000000000000, #24 ) ;
#11 = ORIENTED_EDGE ( 'NONE', *, *, #94, .T. ) ;
#12 = CARTESIAN_POINT ( 'NONE',  ( 0.000000000000000000, 0.000000000000000000, 250.0000000000000000 ) ) ;
#13 = PERSON_AND_ORGANIZATION ( #35, #37 ) ;
#14 = CARTESIAN_POINT ( 'NONE',  ( 0.000000000000000000, 0.000000000000000000, 250.0000000000000000 ) ) ;
#15 = DIRECTION ( 'NONE',  ( 0.000000000000000000, 0.000000000000000000, 1.000000000000000000 ) ) ;
#16 = DIRECTION ( 'NONE',  ( 1.000000000000000000, 0.000000000000000000, -0.000000000000000000 ) ) ;
#17 = CC_DESIGN_PERSON_AND_ORGANIZATION_ASSIGNMENT ( #109, #206, ( #59 ) ) ;
#18 = APPROVAL ( #131, 'NEURÈENÝ' ) ;
#19 = APPLICATION_PROTOCOL_DEFINITION ( 'international standard', 'config_control_design', 1994, #84 ) ;
#20 = PERSON_AND_ORGANIZATION ( #35, #37 ) ;
#21 = VECTOR ( 'NONE', #164, 1000.000000000000000 ) ;
#22 = AXIS2_PLACEMENT_3D ( 'NONE', #127, #172, #207 ) ;
#23 = CC_DESIGN_PERSON_AND_ORGANIZATION_ASSIGNMENT ( #121, #74, ( #72 ) ) ;
#24 = COORDINATED_UNIVERSAL_TIME_OFFSET ( 1, 0, .AHEAD. ) ;
#25 = AXIS2_PLACEMENT_3D ( 'NONE', #88, #65, #189 ) ;
#26 = CARTESIAN_POINT ( 'NONE',  ( 8.000000000000000000, 9.797174393178825657E-16, 0.000000000000000000 ) ) ;
#27 = PERSON_AND_ORGANIZATION ( #35, #37 ) ;
#28 = PLANE ( 'NONE',  #244 ) ;
#29 = DIRECTION ( 'NONE',  ( -1.000000000000000000, 0.000000000000000000, 0.000000000000000000 ) ) ;
#30 = EDGE_CURVE ( 'NONE', #107, #122, #161, .T. ) ;
#31 = UNCERTAINTY_MEASURE_WITH_UNIT (LENGTH_MEASURE( 1.000000000000000082E-05 ), #58, 'distance_accuracy_value', 'NONE');
#32 = ADVANCED_FACE ( 'NONE', ( #98, #95 ), #28, .T. ) ;
#33 = DIRECTION ( 'NONE',  ( 1.000000000000000000, 0.000000000000000000, -0.000000000000000000 ) ) ;
#34 = AXIS2_PLACEMENT_3D ( 'NONE', #214, #217, #137 ) ;
#35 = PERSON ( 'NEURÈENÝ', 'NEURÈENÝ', 'NEURÈENÝ', ('NEURÈENÝ'), ('NEURÈENÝ'), ('NEURÈENÝ') ) ;
#36 = ADVANCED_BREP_SHAPE_REPRESENTATION ( '02fe', ( #173, #25 ), #177 ) ;
#37 = ORGANIZATION ( 'NEURÈENÝ', 'NEURÈENÝ', '' ) ;
#38 = CARTESIAN_POINT ( 'NONE',  ( -5.500000000000000000, 0.000000000000000000, 250.0000000000000000 ) ) ;
#39 = CALENDAR_DATE ( 2023, 12, 2 ) ;
#40 = ORIENTED_EDGE ( 'NONE', *, *, #85, .F. ) ;
#41 = DATE_AND_TIME ( #39, #1 ) ;
#42 = DIRECTION ( 'NONE',  ( 0.000000000000000000, 0.000000000000000000, 1.000000000000000000 ) ) ;
#43 = APPROVAL ( #182, 'NEURÈENÝ' ) ;
#44 = PRODUCT ( '02fe', '02fe', '', ( #132 ) ) ;
#45 = EDGE_LOOP ( 'NONE', ( #96, #40 ) ) ;
#46 = APPLICATION_CONTEXT ( 'configuration controlled 3d designs of mechanical parts and assemblies' ) ;
#47 = PERSON_AND_ORGANIZATION_ROLE ( 'design_owner' ) ;
#48 = DIRECTION ( 'NONE',  ( -0.000000000000000000, -0.000000000000000000, -1.000000000000000000 ) ) ;
#49 = SECURITY_CLASSIFICATION_LEVEL ( 'unclassified' ) ;
#50 = EDGE_LOOP ( 'NONE', ( #115, #153, #248, #216 ) ) ;
#51 = CALENDAR_DATE ( 2023, 12, 2 ) ;
#52 = DIRECTION ( 'NONE',  ( 0.000000000000000000, 0.000000000000000000, 1.000000000000000000 ) ) ;
#53 = CARTESIAN_POINT ( 'NONE',  ( 5.500000000000000000, 6.735557395310442023E-16, 250.0000000000000000 ) ) ;
#54 = CC_DESIGN_PERSON_AND_ORGANIZATION_ASSIGNMENT ( #100, #178, ( #72 ) ) ;
#55 = DESIGN_CONTEXT ( 'detailed design', #46, 'design' ) ;
#56 = APPROVAL_PERSON_ORGANIZATION ( #27, #43, #119 ) ;
#57 = PLANE ( 'NONE',  #71 ) ;
#58 =( LENGTH_UNIT ( ) NAMED_UNIT ( * ) SI_UNIT ( .MILLI., .METRE. ) );
#59 = PRODUCT_DEFINITION ( 'NEZNÁMÝ', '', #72, #55 ) ;
#60 = DATE_AND_TIME ( #171, #10 ) ;
#61 = CLOSED_SHELL ( 'NONE', ( #118, #104, #99, #32, #251, #166, #192 ) ) ;
#62 = APPROVAL_DATE_TIME ( #60, #18 ) ;
#63 = ORIENTED_EDGE ( 'NONE', *, *, #135, .T. ) ;
#64 = APPROVAL ( #111, 'NEURÈENÝ' ) ;
#65 = DIRECTION ( 'NONE',  ( 0.000000000000000000, 0.000000000000000000, 1.000000000000000000 ) ) ;
#66 = EDGE_LOOP ( 'NONE', ( #63, #75 ) ) ;
#67 = FACE_OUTER_BOUND ( 'NONE', #209, .T. ) ;
#68 = ORIENTED_EDGE ( 'NONE', *, *, #30, .F. ) ;
#69 = AXIS2_PLACEMENT_3D ( 'NONE', #165, #238, #181 ) ;
#70 = VERTEX_POINT ( 'NONE', #184 ) ;
#71 = AXIS2_PLACEMENT_3D ( 'NONE', #144, #241, #33 ) ;
#72 = PRODUCT_DEFINITION_FORMATION_WITH_SPECIFIED_SOURCE ( 'LIBOVOLNÝ', '', #44, .NOT_KNOWN. ) ;
#73 = CYLINDRICAL_SURFACE ( 'NONE', #191, 8.000000000000000000 ) ;
#74 = PERSON_AND_ORGANIZATION_ROLE ( 'design_supplier' ) ;
#75 = ORIENTED_EDGE ( 'NONE', *, *, #234, .T. ) ;
#76 = CYLINDRICAL_SURFACE ( 'NONE', #80, 5.500000000000000000 ) ;
#77 = LOCAL_TIME ( 12, 14, 22.00000000000000000, #2 ) ;
#78 = CARTESIAN_POINT ( 'NONE',  ( 0.000000000000000000, 0.000000000000000000, 5.000000000000000000 ) ) ;
#79 = LINE ( 'NONE', #239, #105 ) ;
#80 = AXIS2_PLACEMENT_3D ( 'NONE', #12, #163, #236 ) ;
#81 = DIRECTION ( 'NONE',  ( -0.000000000000000000, -0.000000000000000000, -1.000000000000000000 ) ) ;
#82 = CARTESIAN_POINT ( 'NONE',  ( 8.000000000000000000, 9.797174393178825657E-16, 5.000000000000000000 ) ) ;
#83 = CARTESIAN_POINT ( 'NONE',  ( 0.000000000000000000, 0.000000000000000000, 5.000000000000000000 ) ) ;
#84 = APPLICATION_CONTEXT ( 'configuration controlled 3d designs of mechanical parts and assemblies' ) ;
#85 = EDGE_CURVE ( 'NONE', #231, #9, #185, .T. ) ;
#86 = LINE ( 'NONE', #38, #90 ) ;
#87 = PLANE ( 'NONE',  #221 ) ;
#88 = CARTESIAN_POINT ( 'NONE',  ( 0.000000000000000000, 0.000000000000000000, 0.000000000000000000 ) ) ;
#89 = APPROVAL_PERSON_ORGANIZATION ( #208, #18, #212 ) ;
#90 = VECTOR ( 'NONE', #126, 1000.000000000000000 ) ;
#91 = CC_DESIGN_APPROVAL ( #64, ( #72 ) ) ;
#92 = DATE_AND_TIME ( #194, #224 ) ;
#93 = VERTEX_POINT ( 'NONE', #53 ) ;
#94 = EDGE_CURVE ( 'NONE', #158, #107, #79, .T. ) ;
#95 = FACE_OUTER_BOUND ( 'NONE', #134, .T. ) ;
#96 = ORIENTED_EDGE ( 'NONE', *, *, #125, .F. ) ;
#97 = PERSON_AND_ORGANIZATION_ROLE ( 'classification_officer' ) ;
#98 = FACE_BOUND ( 'NONE', #45, .T. ) ;
#99 = ADVANCED_FACE ( 'NONE', ( #141 ), #120, .T. ) ;
#100 = PERSON_AND_ORGANIZATION ( #35, #37 ) ;
#101 = CARTESIAN_POINT ( 'NONE',  ( 5.500000000000000000, 6.735557395310442023E-16, 250.0000000000000000 ) ) ;
#102 = AXIS2_PLACEMENT_3D ( 'NONE', #138, #203, #4 ) ;
#103 = CARTESIAN_POINT ( 'NONE',  ( -8.000000000000000000, 0.000000000000000000, 5.000000000000000000 ) ) ;
#104 = ADVANCED_FACE ( 'NONE', ( #159 ), #73, .T. ) ;
#105 = VECTOR ( 'NONE', #48, 1000.000000000000000 ) ;
#106 = CARTESIAN_POINT ( 'NONE',  ( 0.000000000000000000, 0.000000000000000000, 250.0000000000000000 ) ) ;
#107 = VERTEX_POINT ( 'NONE', #201 ) ;
#108 = AXIS2_PLACEMENT_3D ( 'NONE', #14, #52, #139 ) ;
#109 = PERSON_AND_ORGANIZATION ( #35, #37 ) ;
#110 = ORIENTED_EDGE ( 'NONE', *, *, #125, .T. ) ;
#111 = APPROVAL_STATUS ( 'not_yet_approved' ) ;
#112 = EDGE_CURVE ( 'NONE', #158, #70, #250, .T. ) ;
#113 = ORIENTED_EDGE ( 'NONE', *, *, #135, .F. ) ;
#114 = AXIS2_PLACEMENT_3D ( 'NONE', #255, #252, #160 ) ;
#115 = ORIENTED_EDGE ( 'NONE', *, *, #169, .F. ) ;
#116 = VECTOR ( 'NONE', #5, 1000.000000000000000 ) ;
#117 = EDGE_LOOP ( 'NONE', ( #190, #113, #245, #110 ) ) ;
#118 = ADVANCED_FACE ( 'NONE', ( #197 ), #76, .T. ) ;
#119 = APPROVAL_ROLE ( '' ) ;
#120 = CYLINDRICAL_SURFACE ( 'NONE', #114, 8.000000000000000000 ) ;
#121 = PERSON_AND_ORGANIZATION ( #35, #37 ) ;
#122 = VERTEX_POINT ( 'NONE', #26 ) ;
#123 = CARTESIAN_POINT ( 'NONE',  ( -5.500000000000000000, 0.000000000000000000, 250.0000000000000000 ) ) ;
#124 = SECURITY_CLASSIFICATION ( '', '', #49 ) ;
#125 = EDGE_CURVE ( 'NONE', #9, #231, #196, .T. ) ;
#126 = DIRECTION ( 'NONE',  ( -0.000000000000000000, -0.000000000000000000, -1.000000000000000000 ) ) ;
#127 = CARTESIAN_POINT ( 'NONE',  ( 0.000000000000000000, 0.000000000000000000, 0.000000000000000000 ) ) ;
#128 = AXIS2_PLACEMENT_3D ( 'NONE', #83, #170, #142 ) ;
#129 = DIRECTION ( 'NONE',  ( 1.000000000000000000, 0.000000000000000000, 0.000000000000000000 ) ) ;
#130 = ORIENTED_EDGE ( 'NONE', *, *, #112, .T. ) ;
#131 = APPROVAL_STATUS ( 'not_yet_approved' ) ;
#132 = MECHANICAL_CONTEXT ( 'NONE', #84, 'mechanical' ) ;
#133 = DIRECTION ( 'NONE',  ( 0.000000000000000000, 0.000000000000000000, 1.000000000000000000 ) ) ;
#134 = EDGE_LOOP ( 'NONE', ( #130, #156 ) ) ;
#135 = EDGE_CURVE ( 'NONE', #230, #93, #223, .T. ) ;
#136 = ORIENTED_EDGE ( 'NONE', *, *, #112, .F. ) ;
#137 = DIRECTION ( 'NONE',  ( 1.000000000000000000, 0.000000000000000000, 0.000000000000000000 ) ) ;
#138 = CARTESIAN_POINT ( 'NONE',  ( 0.000000000000000000, 0.000000000000000000, 0.000000000000000000 ) ) ;
#139 = DIRECTION ( 'NONE',  ( 1.000000000000000000, 0.000000000000000000, 0.000000000000000000 ) ) ;
#140 = SHAPE_DEFINITION_REPRESENTATION ( #198, #36 ) ;
#141 = FACE_OUTER_BOUND ( 'NONE', #195, .T. ) ;
#142 = DIRECTION ( 'NONE',  ( 1.000000000000000000, 0.000000000000000000, 0.000000000000000000 ) ) ;
#143 = CC_DESIGN_DATE_AND_TIME_ASSIGNMENT ( #218, #213, ( #124 ) ) ;
#144 = CARTESIAN_POINT ( 'NONE',  ( 0.000000000000000000, 0.000000000000000000, 250.0000000000000000 ) ) ;
#145 = EDGE_CURVE ( 'NONE', #93, #231, #219, .T. ) ;
#146 = LOCAL_TIME ( 12, 14, 22.00000000000000000, #215 ) ;
#147 =( NAMED_UNIT ( * ) SI_UNIT ( $, .STERADIAN. ) SOLID_ANGLE_UNIT ( ) );
#148 = DATE_TIME_ROLE ( 'creation_date' ) ;
#149 = ORIENTED_EDGE ( 'NONE', *, *, #234, .F. ) ;
#150 = CIRCLE ( 'NONE', #243, 5.500000000000000000 ) ;
#151 = COORDINATED_UNIVERSAL_TIME_OFFSET ( 1, 0, .AHEAD. ) ;
#152 = ORIENTED_EDGE ( 'NONE', *, *, #85, .T. ) ;
#153 = ORIENTED_EDGE ( 'NONE', *, *, #183, .T. ) ;
#154 = CARTESIAN_POINT ( 'NONE',  ( 0.000000000000000000, 0.000000000000000000, 0.000000000000000000 ) ) ;
#155 = EDGE_CURVE ( 'NONE', #230, #9, #86, .T. ) ;
#156 = ORIENTED_EDGE ( 'NONE', *, *, #169, .T. ) ;
#157 = CALENDAR_DATE ( 2023, 12, 2 ) ;
#158 = VERTEX_POINT ( 'NONE', #103 ) ;
#159 = FACE_OUTER_BOUND ( 'NONE', #50, .T. ) ;
#160 = DIRECTION ( 'NONE',  ( -1.000000000000000000, 0.000000000000000000, 0.000000000000000000 ) ) ;
#161 = CIRCLE ( 'NONE', #102, 8.000000000000000000 ) ;
#162 = CC_DESIGN_APPROVAL ( #18, ( #59 ) ) ;
#163 = DIRECTION ( 'NONE',  ( -0.000000000000000000, -0.000000000000000000, -1.000000000000000000 ) ) ;
#164 = DIRECTION ( 'NONE',  ( -0.000000000000000000, -0.000000000000000000, -1.000000000000000000 ) ) ;
#165 = CARTESIAN_POINT ( 'NONE',  ( 0.000000000000000000, 0.000000000000000000, 5.000000000000000000 ) ) ;
#166 = ADVANCED_FACE ( 'NONE', ( #204 ), #186, .T. ) ;
#167 = LINE ( 'NONE', #82, #116 ) ;
#168 = CIRCLE ( 'NONE', #128, 8.000000000000000000 ) ;
#169 = EDGE_CURVE ( 'NONE', #70, #158, #168, .T. ) ;
#170 = DIRECTION ( 'NONE',  ( 0.000000000000000000, 0.000000000000000000, 1.000000000000000000 ) ) ;
#171 = CALENDAR_DATE ( 2023, 12, 2 ) ;
#172 = DIRECTION ( 'NONE',  ( 0.000000000000000000, 0.000000000000000000, 1.000000000000000000 ) ) ;
#173 = MANIFOLD_SOLID_BREP ( 'Pøidat vysunutím3', #61 ) ;
#174 = CARTESIAN_POINT ( 'NONE',  ( 5.500000000000000000, 6.735557395310442023E-16, 5.000000000000000000 ) ) ;
#175 = PERSON_AND_ORGANIZATION ( #35, #37 ) ;
#176 = ORIENTED_EDGE ( 'NONE', *, *, #145, .T. ) ;
#177 =( GEOMETRIC_REPRESENTATION_CONTEXT ( 3 ) GLOBAL_UNCERTAINTY_ASSIGNED_CONTEXT ( ( #31 ) ) GLOBAL_UNIT_ASSIGNED_CONTEXT ( ( #58, #225, #147 ) ) REPRESENTATION_CONTEXT ( 'NONE', 'WORKASPACE' ) );
#178 = PERSON_AND_ORGANIZATION_ROLE ( 'creator' ) ;
#179 = DIRECTION ( 'NONE',  ( 0.000000000000000000, 0.000000000000000000, 1.000000000000000000 ) ) ;
#180 = DIRECTION ( 'NONE',  ( -0.000000000000000000, -0.000000000000000000, -1.000000000000000000 ) ) ;
#181 = DIRECTION ( 'NONE',  ( 1.000000000000000000, 0.000000000000000000, 0.000000000000000000 ) ) ;
#182 = APPROVAL_STATUS ( 'not_yet_approved' ) ;
#183 = EDGE_CURVE ( 'NONE', #70, #122, #167, .T. ) ;
#184 = CARTESIAN_POINT ( 'NONE',  ( 8.000000000000000000, 9.797174393178825657E-16, 5.000000000000000000 ) ) ;
#185 = CIRCLE ( 'NONE', #69, 5.500000000000000000 ) ;
#186 = CYLINDRICAL_SURFACE ( 'NONE', #210, 5.500000000000000000 ) ;
#187 = CIRCLE ( 'NONE', #22, 8.000000000000000000 ) ;
#188 = PRODUCT_RELATED_PRODUCT_CATEGORY ( 'detail', '', ( #44 ) ) ;
#189 = DIRECTION ( 'NONE',  ( 1.000000000000000000, 0.000000000000000000, 0.000000000000000000 ) ) ;
#190 = ORIENTED_EDGE ( 'NONE', *, *, #145, .F. ) ;
#191 = AXIS2_PLACEMENT_3D ( 'NONE', #220, #180, #29 ) ;
#192 = ADVANCED_FACE ( 'NONE', ( #240 ), #57, .T. ) ;
#193 = EDGE_LOOP ( 'NONE', ( #149, #176, #152, #235 ) ) ;
#194 = CALENDAR_DATE ( 2023, 12, 2 ) ;
#195 = EDGE_LOOP ( 'NONE', ( #233, #136, #11, #253 ) ) ;
#196 = CIRCLE ( 'NONE', #226, 5.500000000000000000 ) ;
#197 = FACE_OUTER_BOUND ( 'NONE', #193, .T. ) ;
#198 = PRODUCT_DEFINITION_SHAPE ( 'NONE', 'NONE',  #59 ) ;
#199 = DIRECTION ( 'NONE',  ( 1.000000000000000000, 0.000000000000000000, 0.000000000000000000 ) ) ;
#200 = APPROVAL_DATE_TIME ( #202, #43 ) ;
#201 = CARTESIAN_POINT ( 'NONE',  ( -8.000000000000000000, 0.000000000000000000, 0.000000000000000000 ) ) ;
#202 = DATE_AND_TIME ( #157, #77 ) ;
#203 = DIRECTION ( 'NONE',  ( 0.000000000000000000, 0.000000000000000000, 1.000000000000000000 ) ) ;
#204 = FACE_OUTER_BOUND ( 'NONE', #117, .T. ) ;
#205 = CC_DESIGN_PERSON_AND_ORGANIZATION_ASSIGNMENT ( #20, #47, ( #44 ) ) ;
#206 = PERSON_AND_ORGANIZATION_ROLE ( 'creator' ) ;
#207 = DIRECTION ( 'NONE',  ( 1.000000000000000000, 0.000000000000000000, 0.000000000000000000 ) ) ;
#208 = PERSON_AND_ORGANIZATION ( #35, #37 ) ;
#209 = EDGE_LOOP ( 'NONE', ( #68, #228 ) ) ;
#210 = AXIS2_PLACEMENT_3D ( 'NONE', #222, #81, #8 ) ;
#211 = CC_DESIGN_APPROVAL ( #43, ( #124 ) ) ;
#212 = APPROVAL_ROLE ( '' ) ;
#213 = DATE_TIME_ROLE ( 'classification_date' ) ;
#214 = CARTESIAN_POINT ( 'NONE',  ( 0.000000000000000000, 0.000000000000000000, 5.000000000000000000 ) ) ;
#215 = COORDINATED_UNIVERSAL_TIME_OFFSET ( 1, 0, .AHEAD. ) ;
#216 = ORIENTED_EDGE ( 'NONE', *, *, #94, .F. ) ;
#217 = DIRECTION ( 'NONE',  ( 0.000000000000000000, 0.000000000000000000, 1.000000000000000000 ) ) ;
#218 = DATE_AND_TIME ( #51, #146 ) ;
#219 = LINE ( 'NONE', #101, #21 ) ;
#220 = CARTESIAN_POINT ( 'NONE',  ( 0.000000000000000000, 0.000000000000000000, 5.000000000000000000 ) ) ;
#221 = AXIS2_PLACEMENT_3D ( 'NONE', #154, #42, #247 ) ;
#222 = CARTESIAN_POINT ( 'NONE',  ( 0.000000000000000000, 0.000000000000000000, 250.0000000000000000 ) ) ;
#223 = CIRCLE ( 'NONE', #108, 5.500000000000000000 ) ;
#224 = LOCAL_TIME ( 12, 14, 22.00000000000000000, #151 ) ;
#225 =( NAMED_UNIT ( * ) PLANE_ANGLE_UNIT ( ) SI_UNIT ( $, .RADIAN. ) );
#226 = AXIS2_PLACEMENT_3D ( 'NONE', #237, #15, #199 ) ;
#227 = COORDINATED_UNIVERSAL_TIME_OFFSET ( 1, 0, .AHEAD. ) ;
#228 = ORIENTED_EDGE ( 'NONE', *, *, #242, .F. ) ;
#229 = APPROVAL_ROLE ( '' ) ;
#230 = VERTEX_POINT ( 'NONE', #123 ) ;
#231 = VERTEX_POINT ( 'NONE', #174 ) ;
#232 = APPLICATION_PROTOCOL_DEFINITION ( 'international standard', 'config_control_design', 1994, #46 ) ;
#233 = ORIENTED_EDGE ( 'NONE', *, *, #183, .F. ) ;
#234 = EDGE_CURVE ( 'NONE', #93, #230, #150, .T. ) ;
#235 = ORIENTED_EDGE ( 'NONE', *, *, #155, .F. ) ;
#236 = DIRECTION ( 'NONE',  ( -1.000000000000000000, 0.000000000000000000, 0.000000000000000000 ) ) ;
#237 = CARTESIAN_POINT ( 'NONE',  ( 0.000000000000000000, 0.000000000000000000, 5.000000000000000000 ) ) ;
#238 = DIRECTION ( 'NONE',  ( 0.000000000000000000, 0.000000000000000000, 1.000000000000000000 ) ) ;
#239 = CARTESIAN_POINT ( 'NONE',  ( -8.000000000000000000, 0.000000000000000000, 5.000000000000000000 ) ) ;
#240 = FACE_OUTER_BOUND ( 'NONE', #66, .T. ) ;
#241 = DIRECTION ( 'NONE',  ( 0.000000000000000000, 0.000000000000000000, 1.000000000000000000 ) ) ;
#242 = EDGE_CURVE ( 'NONE', #122, #107, #187, .T. ) ;
#243 = AXIS2_PLACEMENT_3D ( 'NONE', #106, #133, #129 ) ;
#244 = AXIS2_PLACEMENT_3D ( 'NONE', #78, #179, #16 ) ;
#245 = ORIENTED_EDGE ( 'NONE', *, *, #155, .T. ) ;
#246 = CC_DESIGN_SECURITY_CLASSIFICATION ( #124, ( #72 ) ) ;
#247 = DIRECTION ( 'NONE',  ( 1.000000000000000000, 0.000000000000000000, -0.000000000000000000 ) ) ;
#248 = ORIENTED_EDGE ( 'NONE', *, *, #242, .T. ) ;
#249 = APPROVAL_DATE_TIME ( #41, #64 ) ;
#250 = CIRCLE ( 'NONE', #34, 8.000000000000000000 ) ;
#251 = ADVANCED_FACE ( 'NONE', ( #67 ), #87, .F. ) ;
#252 = DIRECTION ( 'NONE',  ( -0.000000000000000000, -0.000000000000000000, -1.000000000000000000 ) ) ;
#253 = ORIENTED_EDGE ( 'NONE', *, *, #30, .T. ) ;
#254 = CC_DESIGN_DATE_AND_TIME_ASSIGNMENT ( #92, #148, ( #59 ) ) ;
#255 = CARTESIAN_POINT ( 'NONE',  ( 0.000000000000000000, 0.000000000000000000, 5.000000000000000000 ) ) ;
ENDSEC;
END-ISO-10303-21;
