ISO-10303-21;
HEADER;
FILE_DESCRIPTION (( 'STEP AP203' ),
    '1' );
FILE_NAME ('2bf5.STEP',
    '2022-07-07T10:25:43',
    ( '' ),
    ( '' ),
    'SwSTEP 2.0',
    'SolidWorks 2019',
    '' );
FILE_SCHEMA (( 'CONFIG_CONTROL_DESIGN' ));
ENDSEC;

DATA;
#1 = DIRECTION ( 'NONE',  ( 1.000000000000000000, 0.000000000000000000, 0.000000000000000000 ) ) ;
#2 = CARTESIAN_POINT ( 'NONE',  ( 0.000000000000000000, 0.000000000000000000, 403.0000000000000000 ) ) ;
#3 = SECURITY_CLASSIFICATION ( '', '', #149 ) ;
#4 = EDGE_CURVE ( 'NONE', #32, #38, #281, .T. ) ;
#5 = CC_DESIGN_PERSON_AND_ORGANIZATION_ASSIGNMENT ( #27, #122, ( #118 ) ) ;
#6 = CARTESIAN_POINT ( 'NONE',  ( 0.000000000000000000, 0.000000000000000000, 0.000000000000000000 ) ) ;
#7 = DIRECTION ( 'NONE',  ( 0.000000000000000000, 0.000000000000000000, 1.000000000000000000 ) ) ;
#8 = DATE_AND_TIME ( #75, #260 ) ;
#9 = PERSON_AND_ORGANIZATION ( #157, #15 ) ;
#10 = COORDINATED_UNIVERSAL_TIME_OFFSET ( 1, 0, .AHEAD. ) ;
#11 = CYLINDRICAL_SURFACE ( 'NONE', #41, 4.000000000000000000 ) ;
#12 = ORIENTED_EDGE ( 'NONE', *, *, #80, .T. ) ;
#13 = EDGE_CURVE ( 'NONE', #62, #163, #172, .T. ) ;
#14 = AXIS2_PLACEMENT_3D ( 'NONE', #105, #301, #257 ) ;
#15 = ORGANIZATION ( 'NEURÈENÝ', 'NEURÈENÝ', '' ) ;
#16 = ORIENTED_EDGE ( 'NONE', *, *, #235, .T. ) ;
#17 = ORIENTED_EDGE ( 'NONE', *, *, #267, .F. ) ;
#18 = CARTESIAN_POINT ( 'NONE',  ( 0.000000000000000000, 0.000000000000000000, 403.0000000000000000 ) ) ;
#19 = AXIS2_PLACEMENT_3D ( 'NONE', #2, #258, #91 ) ;
#20 = DIRECTION ( 'NONE',  ( 1.000000000000000000, 0.000000000000000000, 0.000000000000000000 ) ) ;
#21 = DIRECTION ( 'NONE',  ( 0.000000000000000000, 0.000000000000000000, 1.000000000000000000 ) ) ;
#22 = FACE_OUTER_BOUND ( 'NONE', #228, .T. ) ;
#23 = AXIS2_PLACEMENT_3D ( 'NONE', #216, #136, #170 ) ;
#24 = LINE ( 'NONE', #48, #45 ) ;
#25 = PERSON_AND_ORGANIZATION ( #157, #15 ) ;
#26 = DIRECTION ( 'NONE',  ( 1.000000000000000000, 0.000000000000000000, 0.000000000000000000 ) ) ;
#27 = PERSON_AND_ORGANIZATION ( #157, #15 ) ;
#28 = AXIS2_PLACEMENT_3D ( 'NONE', #239, #169, #113 ) ;
#29 = APPROVAL ( #73, 'NEURÈENÝ' ) ;
#30 = PRODUCT_DEFINITION_FORMATION_WITH_SPECIFIED_SOURCE ( 'LIBOVOLNÝ', '', #303, .NOT_KNOWN. ) ;
#31 = DIRECTION ( 'NONE',  ( 1.000000000000000000, 0.000000000000000000, 0.000000000000000000 ) ) ;
#32 = VERTEX_POINT ( 'NONE', #85 ) ;
#33 =( NAMED_UNIT ( * ) SI_UNIT ( $, .STERADIAN. ) SOLID_ANGLE_UNIT ( ) );
#34 = ORIENTED_EDGE ( 'NONE', *, *, #291, .T. ) ;
#35 = DATE_TIME_ROLE ( 'classification_date' ) ;
#36 = AXIS2_PLACEMENT_3D ( 'NONE', #46, #212, #1 ) ;
#37 = CIRCLE ( 'NONE', #28, 0.2000000000000000944 ) ;
#38 = VERTEX_POINT ( 'NONE', #183 ) ;
#39 = VERTEX_POINT ( 'NONE', #278 ) ;
#40 = FACE_OUTER_BOUND ( 'NONE', #132, .T. ) ;
#41 = AXIS2_PLACEMENT_3D ( 'NONE', #229, #304, #110 ) ;
#42 = EDGE_LOOP ( 'NONE', ( #251, #177, #86, #250 ) ) ;
#43 = DIRECTION ( 'NONE',  ( 1.000000000000000000, 0.000000000000000000, 0.000000000000000000 ) ) ;
#44 = DIRECTION ( 'NONE',  ( 0.000000000000000000, 0.000000000000000000, 1.000000000000000000 ) ) ;
#45 = VECTOR ( 'NONE', #140, 1000.000000000000000 ) ;
#46 = CARTESIAN_POINT ( 'NONE',  ( 0.000000000000000000, 0.000000000000000000, 3.199999999999980638 ) ) ;
#47 = CYLINDRICAL_SURFACE ( 'NONE', #137, 4.000000000000000000 ) ;
#48 = CARTESIAN_POINT ( 'NONE',  ( -2.000000000000000000, 0.000000000000000000, 403.0000000000000000 ) ) ;
#49 = CIRCLE ( 'NONE', #121, 4.000000000000000000 ) ;
#50 = CYLINDRICAL_SURFACE ( 'NONE', #199, 2.000000000000000000 ) ;
#51 = EDGE_CURVE ( 'NONE', #161, #39, #232, .T. ) ;
#52 = COORDINATED_UNIVERSAL_TIME_OFFSET ( 1, 0, .AHEAD. ) ;
#53 = VERTEX_POINT ( 'NONE', #61 ) ;
#54 = CC_DESIGN_SECURITY_CLASSIFICATION ( #3, ( #30 ) ) ;
#55 = PERSON_AND_ORGANIZATION ( #157, #15 ) ;
#56 = ADVANCED_FACE ( 'NONE', ( #40 ), #11, .T. ) ;
#57 = CC_DESIGN_PERSON_AND_ORGANIZATION_ASSIGNMENT ( #72, #269, ( #303 ) ) ;
#58 = PERSON_AND_ORGANIZATION ( #157, #15 ) ;
#59 = ORIENTED_EDGE ( 'NONE', *, *, #133, .T. ) ;
#60 = DIRECTION ( 'NONE',  ( 0.000000000000000000, 0.000000000000000000, 1.000000000000000000 ) ) ;
#61 = CARTESIAN_POINT ( 'NONE',  ( -2.000000000000000000, 0.000000000000000000, 3.199999999999980638 ) ) ;
#62 = VERTEX_POINT ( 'NONE', #208 ) ;
#63 = AXIS2_PLACEMENT_3D ( 'NONE', #207, #60, #134 ) ;
#64 = CARTESIAN_POINT ( 'NONE',  ( 0.000000000000000000, 0.000000000000000000, 0.000000000000000000 ) ) ;
#65 = CC_DESIGN_DATE_AND_TIME_ASSIGNMENT ( #8, #77, ( #118 ) ) ;
#66 = FACE_OUTER_BOUND ( 'NONE', #277, .T. ) ;
#67 = DIRECTION ( 'NONE',  ( 0.000000000000000000, 0.000000000000000000, 1.000000000000000000 ) ) ;
#68 = DIRECTION ( 'NONE',  ( 1.000000000000000000, 0.000000000000000000, 0.000000000000000000 ) ) ;
#69 = CARTESIAN_POINT ( 'NONE',  ( 2.000000000000000000, 2.449293598294706414E-16, 403.0000000000000000 ) ) ;
#70 = CARTESIAN_POINT ( 'NONE',  ( -4.000000000000000000, 0.000000000000000000, 3.000000000000000000 ) ) ;
#71 = CIRCLE ( 'NONE', #217, 4.000000000000000000 ) ;
#72 = PERSON_AND_ORGANIZATION ( #157, #15 ) ;
#73 = APPROVAL_STATUS ( 'not_yet_approved' ) ;
#74 = EDGE_CURVE ( 'NONE', #38, #197, #215, .T. ) ;
#75 = CALENDAR_DATE ( 2022, 7, 7 ) ;
#76 = CIRCLE ( 'NONE', #253, 2.000000000000000000 ) ;
#77 = DATE_TIME_ROLE ( 'creation_date' ) ;
#78 = EDGE_LOOP ( 'NONE', ( #79, #156 ) ) ;
#79 = ORIENTED_EDGE ( 'NONE', *, *, #307, .T. ) ;
#80 = EDGE_CURVE ( 'NONE', #53, #62, #82, .T. ) ;
#81 = CARTESIAN_POINT ( 'NONE',  ( 0.000000000000000000, 0.000000000000000000, 0.000000000000000000 ) ) ;
#82 = CIRCLE ( 'NONE', #240, 0.2000000000000000944 ) ;
#83 = CC_DESIGN_APPROVAL ( #29, ( #118 ) ) ;
#84 = CC_DESIGN_PERSON_AND_ORGANIZATION_ASSIGNMENT ( #25, #151, ( #3 ) ) ;
#85 = CARTESIAN_POINT ( 'NONE',  ( 4.000000000000000000, 4.898587196589412829E-16, 3.000000000000000000 ) ) ;
#86 = ORIENTED_EDGE ( 'NONE', *, *, #174, .T. ) ;
#87 = ORIENTED_EDGE ( 'NONE', *, *, #246, .F. ) ;
#88 = CIRCLE ( 'NONE', #173, 2.200000000000000178 ) ;
#89 = CARTESIAN_POINT ( 'NONE',  ( 0.000000000000000000, 0.000000000000000000, 3.199999999999980638 ) ) ;
#90 = FACE_OUTER_BOUND ( 'NONE', #42, .T. ) ;
#91 = DIRECTION ( 'NONE',  ( -1.000000000000000000, 0.000000000000000000, 0.000000000000000000 ) ) ;
#92 = FACE_BOUND ( 'NONE', #78, .T. ) ;
#93 = CARTESIAN_POINT ( 'NONE',  ( 0.000000000000000000, 0.000000000000000000, 3.000000000000000000 ) ) ;
#94 = UNCERTAINTY_MEASURE_WITH_UNIT (LENGTH_MEASURE( 1.000000000000000082E-05 ), #195, 'distance_accuracy_value', 'NONE');
#95 = CC_DESIGN_APPROVAL ( #180, ( #3 ) ) ;
#96 = MECHANICAL_CONTEXT ( 'NONE', #226, 'mechanical' ) ;
#97 = ORIENTED_EDGE ( 'NONE', *, *, #109, .F. ) ;
#98 = APPROVAL_ROLE ( '' ) ;
#99 = ADVANCED_FACE ( 'NONE', ( #203 ), #299, .F. ) ;
#100 = CALENDAR_DATE ( 2022, 7, 7 ) ;
#101 = APPROVAL_ROLE ( '' ) ;
#102 = EDGE_CURVE ( 'NONE', #161, #128, #213, .T. ) ;
#103 = ORIENTED_EDGE ( 'NONE', *, *, #4, .F. ) ;
#104 = DIRECTION ( 'NONE',  ( 0.000000000000000000, 0.000000000000000000, 1.000000000000000000 ) ) ;
#105 = CARTESIAN_POINT ( 'NONE',  ( 0.000000000000000000, 0.000000000000000000, 3.000000000000000000 ) ) ;
#106 = TOROIDAL_SURFACE ( 'NONE', #289, 2.200000000000000178, 0.2000000000000000111 ) ;
#107 = APPROVAL_PERSON_ORGANIZATION ( #220, #29, #98 ) ;
#108 = DIRECTION ( 'NONE',  ( -0.000000000000000000, -0.000000000000000000, -1.000000000000000000 ) ) ;
#109 = EDGE_CURVE ( 'NONE', #39, #161, #275, .T. ) ;
#110 = DIRECTION ( 'NONE',  ( -1.000000000000000000, 0.000000000000000000, 0.000000000000000000 ) ) ;
#111 = CYLINDRICAL_SURFACE ( 'NONE', #19, 2.000000000000000000 ) ;
#112 = VECTOR ( 'NONE', #189, 1000.000000000000000 ) ;
#113 = DIRECTION ( 'NONE',  ( 0.000000000000000000, 0.000000000000000000, -1.000000000000000000 ) ) ;
#114 = CARTESIAN_POINT ( 'NONE',  ( 0.000000000000000000, 0.000000000000000000, 403.0000000000000000 ) ) ;
#115 = CARTESIAN_POINT ( 'NONE',  ( 0.000000000000000000, 0.000000000000000000, 3.000000000000000000 ) ) ;
#116 = AXIS2_PLACEMENT_3D ( 'NONE', #114, #238, #284 ) ;
#117 = PLANE ( 'NONE',  #23 ) ;
#118 = PRODUCT_DEFINITION ( 'NEZNÁMÝ', '', #30, #219 ) ;
#119 = COORDINATED_UNIVERSAL_TIME_OFFSET ( 1, 0, .AHEAD. ) ;
#120 = DIRECTION ( 'NONE',  ( 0.000000000000000000, 0.000000000000000000, 1.000000000000000000 ) ) ;
#121 = AXIS2_PLACEMENT_3D ( 'NONE', #93, #198, #125 ) ;
#122 = PERSON_AND_ORGANIZATION_ROLE ( 'creator' ) ;
#123 = APPROVAL_DATE_TIME ( #145, #180 ) ;
#124 = CALENDAR_DATE ( 2022, 7, 7 ) ;
#125 = DIRECTION ( 'NONE',  ( 1.000000000000000000, 0.000000000000000000, 0.000000000000000000 ) ) ;
#126 = ORIENTED_EDGE ( 'NONE', *, *, #267, .T. ) ;
#127 = DATE_AND_TIME ( #248, #254 ) ;
#128 = VERTEX_POINT ( 'NONE', #306 ) ;
#129 = CC_DESIGN_APPROVAL ( #256, ( #30 ) ) ;
#130 = EDGE_LOOP ( 'NONE', ( #103, #158, #150, #126 ) ) ;
#131 = ORIENTED_EDGE ( 'NONE', *, *, #51, .T. ) ;
#132 = EDGE_LOOP ( 'NONE', ( #255, #181, #160, #227 ) ) ;
#133 = EDGE_CURVE ( 'NONE', #53, #128, #76, .T. ) ;
#134 = DIRECTION ( 'NONE',  ( 1.000000000000000000, 0.000000000000000000, 0.000000000000000000 ) ) ;
#135 = DIRECTION ( 'NONE',  ( 1.224646799147353207E-16, 1.000000000000000000, -0.000000000000000000 ) ) ;
#136 = DIRECTION ( 'NONE',  ( 0.000000000000000000, 0.000000000000000000, 1.000000000000000000 ) ) ;
#137 = AXIS2_PLACEMENT_3D ( 'NONE', #115, #263, #164 ) ;
#138 = CARTESIAN_POINT ( 'NONE',  ( 0.000000000000000000, 0.000000000000000000, 3.199999999999980638 ) ) ;
#139 = PLANE ( 'NONE',  #116 ) ;
#140 = DIRECTION ( 'NONE',  ( -0.000000000000000000, -0.000000000000000000, -1.000000000000000000 ) ) ;
#141 = ADVANCED_FACE ( 'NONE', ( #66 ), #139, .T. ) ;
#142 = CIRCLE ( 'NONE', #186, 4.000000000000000000 ) ;
#143 = CARTESIAN_POINT ( 'NONE',  ( 0.000000000000000000, 0.000000000000000000, 403.0000000000000000 ) ) ;
#144 = APPLICATION_PROTOCOL_DEFINITION ( 'international standard', 'config_control_design', 1994, #264 ) ;
#145 = DATE_AND_TIME ( #244, #155 ) ;
#146 = CLOSED_SHELL ( 'NONE', ( #159, #205, #56, #192, #249, #99, #276, #141, #165 ) ) ;
#147 = AXIS2_PLACEMENT_3D ( 'NONE', #242, #120, #31 ) ;
#148 = DIRECTION ( 'NONE',  ( -1.000000000000000000, 0.000000000000000000, 0.000000000000000000 ) ) ;
#149 = SECURITY_CLASSIFICATION_LEVEL ( 'unclassified' ) ;
#150 = ORIENTED_EDGE ( 'NONE', *, *, #237, .T. ) ;
#151 = PERSON_AND_ORGANIZATION_ROLE ( 'classification_officer' ) ;
#152 = EDGE_LOOP ( 'NONE', ( #270, #34 ) ) ;
#153 = COORDINATED_UNIVERSAL_TIME_OFFSET ( 1, 0, .AHEAD. ) ;
#154 = TOROIDAL_SURFACE ( 'NONE', #36, 2.200000000000000178, 0.2000000000000000111 ) ;
#155 = LOCAL_TIME ( 12, 25, 43.00000000000000000, #153 ) ;
#156 = ORIENTED_EDGE ( 'NONE', *, *, #13, .T. ) ;
#157 = PERSON ( 'NEURÈENÝ', 'NEURÈENÝ', 'NEURÈENÝ', ('NEURÈENÝ'), ('NEURÈENÝ'), ('NEURÈENÝ') ) ;
#158 = ORIENTED_EDGE ( 'NONE', *, *, #287, .F. ) ;
#159 = ADVANCED_FACE ( 'NONE', ( #22 ), #106, .F. ) ;
#160 = ORIENTED_EDGE ( 'NONE', *, *, #74, .T. ) ;
#161 = VERTEX_POINT ( 'NONE', #69 ) ;
#162 = VECTOR ( 'NONE', #168, 1000.000000000000000 ) ;
#163 = VERTEX_POINT ( 'NONE', #259 ) ;
#164 = DIRECTION ( 'NONE',  ( -1.000000000000000000, 0.000000000000000000, 0.000000000000000000 ) ) ;
#165 = ADVANCED_FACE ( 'NONE', ( #90 ), #154, .F. ) ;
#166 = CARTESIAN_POINT ( 'NONE',  ( -4.000000000000000000, 0.000000000000000000, 3.000000000000000000 ) ) ;
#167 = LOCAL_TIME ( 12, 25, 43.00000000000000000, #119 ) ;
#168 = DIRECTION ( 'NONE',  ( -0.000000000000000000, -0.000000000000000000, -1.000000000000000000 ) ) ;
#169 = DIRECTION ( 'NONE',  ( 0.000000000000000000, -1.000000000000000000, 0.000000000000000000 ) ) ;
#170 = DIRECTION ( 'NONE',  ( 1.000000000000000000, 0.000000000000000000, -0.000000000000000000 ) ) ;
#171 = AXIS2_PLACEMENT_3D ( 'NONE', #18, #214, #282 ) ;
#172 = CIRCLE ( 'NONE', #14, 2.200000000000000178 ) ;
#173 = AXIS2_PLACEMENT_3D ( 'NONE', #175, #292, #26 ) ;
#174 = EDGE_CURVE ( 'NONE', #128, #163, #37, .T. ) ;
#175 = CARTESIAN_POINT ( 'NONE',  ( 0.000000000000000000, 0.000000000000000000, 3.000000000000000000 ) ) ;
#176 = APPROVAL_ROLE ( '' ) ;
#177 = ORIENTED_EDGE ( 'NONE', *, *, #235, .F. ) ;
#178 = APPROVAL_DATE_TIME ( #293, #256 ) ;
#179 = APPROVAL_STATUS ( 'not_yet_approved' ) ;
#180 = APPROVAL ( #224, 'NEURÈENÝ' ) ;
#181 = ORIENTED_EDGE ( 'NONE', *, *, #4, .T. ) ;
#182 = DIRECTION ( 'NONE',  ( 0.000000000000000000, 0.000000000000000000, 1.000000000000000000 ) ) ;
#183 = CARTESIAN_POINT ( 'NONE',  ( 4.000000000000000000, 4.898587196589412829E-16, 0.000000000000000000 ) ) ;
#184 = VERTEX_POINT ( 'NONE', #166 ) ;
#185 = ORIENTED_EDGE ( 'NONE', *, *, #246, .T. ) ;
#186 = AXIS2_PLACEMENT_3D ( 'NONE', #288, #7, #245 ) ;
#187 = DIRECTION ( 'NONE',  ( 1.000000000000000000, 0.000000000000000000, -0.000000000000000000 ) ) ;
#188 = PRODUCT_RELATED_PRODUCT_CATEGORY ( 'detail', '', ( #303 ) ) ;
#189 = DIRECTION ( 'NONE',  ( -0.000000000000000000, -0.000000000000000000, -1.000000000000000000 ) ) ;
#190 = CARTESIAN_POINT ( 'NONE',  ( -4.000000000000000000, 0.000000000000000000, 0.000000000000000000 ) ) ;
#191 = APPROVAL_PERSON_ORGANIZATION ( #9, #256, #176 ) ;
#192 = ADVANCED_FACE ( 'NONE', ( #194 ), #47, .T. ) ;
#193 = CARTESIAN_POINT ( 'NONE',  ( 0.000000000000000000, 0.000000000000000000, 3.199999999999980638 ) ) ;
#194 = FACE_OUTER_BOUND ( 'NONE', #130, .T. ) ;
#195 =( LENGTH_UNIT ( ) NAMED_UNIT ( * ) SI_UNIT ( .MILLI., .METRE. ) );
#196 =( NAMED_UNIT ( * ) PLANE_ANGLE_UNIT ( ) SI_UNIT ( $, .RADIAN. ) );
#197 = VERTEX_POINT ( 'NONE', #190 ) ;
#198 = DIRECTION ( 'NONE',  ( 0.000000000000000000, 0.000000000000000000, 1.000000000000000000 ) ) ;
#199 = AXIS2_PLACEMENT_3D ( 'NONE', #143, #268, #148 ) ;
#200 = LOCAL_TIME ( 12, 25, 43.00000000000000000, #52 ) ;
#201 = APPLICATION_PROTOCOL_DEFINITION ( 'international standard', 'config_control_design', 1994, #226 ) ;
#202 = CC_DESIGN_PERSON_AND_ORGANIZATION_ASSIGNMENT ( #58, #271, ( #30 ) ) ;
#203 = FACE_OUTER_BOUND ( 'NONE', #272, .T. ) ;
#204 = CARTESIAN_POINT ( 'NONE',  ( -2.200000000000000178, 2.694222958124177006E-16, 3.199999999999980638 ) ) ;
#205 = ADVANCED_FACE ( 'NONE', ( #210 ), #111, .T. ) ;
#206 = ORIENTED_EDGE ( 'NONE', *, *, #102, .F. ) ;
#207 = CARTESIAN_POINT ( 'NONE',  ( 0.000000000000000000, 0.000000000000000000, 403.0000000000000000 ) ) ;
#208 = CARTESIAN_POINT ( 'NONE',  ( -2.200000000000000178, 2.694222958124177006E-16, 2.999999999999990674 ) ) ;
#209 = CIRCLE ( 'NONE', #295, 2.000000000000000000 ) ;
#210 = FACE_OUTER_BOUND ( 'NONE', #274, .T. ) ;
#211 =( GEOMETRIC_REPRESENTATION_CONTEXT ( 3 ) GLOBAL_UNCERTAINTY_ASSIGNED_CONTEXT ( ( #94 ) ) GLOBAL_UNIT_ASSIGNED_CONTEXT ( ( #195, #196, #33 ) ) REPRESENTATION_CONTEXT ( 'NONE', 'WORKASPACE' ) );
#212 = DIRECTION ( 'NONE',  ( 0.000000000000000000, 0.000000000000000000, 1.000000000000000000 ) ) ;
#213 = LINE ( 'NONE', #285, #112 ) ;
#214 = DIRECTION ( 'NONE',  ( 0.000000000000000000, 0.000000000000000000, 1.000000000000000000 ) ) ;
#215 = CIRCLE ( 'NONE', #300, 4.000000000000000000 ) ;
#216 = CARTESIAN_POINT ( 'NONE',  ( 0.000000000000000000, 0.000000000000000000, 3.000000000000000000 ) ) ;
#217 = AXIS2_PLACEMENT_3D ( 'NONE', #6, #44, #265 ) ;
#218 = COORDINATED_UNIVERSAL_TIME_OFFSET ( 1, 0, .AHEAD. ) ;
#219 = DESIGN_CONTEXT ( 'detailed design', #264, 'design' ) ;
#220 = PERSON_AND_ORGANIZATION ( #157, #15 ) ;
#221 = AXIS2_PLACEMENT_3D ( 'NONE', #81, #182, #187 ) ;
#222 = APPROVAL_PERSON_ORGANIZATION ( #223, #180, #101 ) ;
#223 = PERSON_AND_ORGANIZATION ( #157, #15 ) ;
#224 = APPROVAL_STATUS ( 'not_yet_approved' ) ;
#225 = CARTESIAN_POINT ( 'NONE',  ( 4.000000000000000000, 4.898587196589412829E-16, 3.000000000000000000 ) ) ;
#226 = APPLICATION_CONTEXT ( 'configuration controlled 3d designs of mechanical parts and assemblies' ) ;
#227 = ORIENTED_EDGE ( 'NONE', *, *, #237, .F. ) ;
#228 = EDGE_LOOP ( 'NONE', ( #298, #12, #273, #302 ) ) ;
#229 = CARTESIAN_POINT ( 'NONE',  ( 0.000000000000000000, 0.000000000000000000, 3.000000000000000000 ) ) ;
#230 = CC_DESIGN_DATE_AND_TIME_ASSIGNMENT ( #127, #35, ( #3 ) ) ;
#231 = DIRECTION ( 'NONE',  ( -1.000000000000000000, 1.224646799147353207E-16, 0.000000000000000000 ) ) ;
#232 = CIRCLE ( 'NONE', #63, 2.000000000000000000 ) ;
#233 = FACE_OUTER_BOUND ( 'NONE', #279, .T. ) ;
#234 = MANIFOLD_SOLID_BREP ( 'Zaoblit1', #146 ) ;
#235 = EDGE_CURVE ( 'NONE', #128, #53, #209, .T. ) ;
#236 = DIRECTION ( 'NONE',  ( 0.000000000000000000, 0.000000000000000000, 1.000000000000000000 ) ) ;
#237 = EDGE_CURVE ( 'NONE', #184, #197, #286, .T. ) ;
#238 = DIRECTION ( 'NONE',  ( 0.000000000000000000, 0.000000000000000000, 1.000000000000000000 ) ) ;
#239 = CARTESIAN_POINT ( 'NONE',  ( 2.200000000000000178, 0.000000000000000000, 3.199999999999980638 ) ) ;
#240 = AXIS2_PLACEMENT_3D ( 'NONE', #204, #135, #231 ) ;
#241 = PERSON_AND_ORGANIZATION_ROLE ( 'design_supplier' ) ;
#242 = CARTESIAN_POINT ( 'NONE',  ( 0.000000000000000000, 0.000000000000000000, 0.000000000000000000 ) ) ;
#243 = APPROVAL_DATE_TIME ( #297, #29 ) ;
#244 = CALENDAR_DATE ( 2022, 7, 7 ) ;
#245 = DIRECTION ( 'NONE',  ( 1.000000000000000000, 0.000000000000000000, 0.000000000000000000 ) ) ;
#246 = EDGE_CURVE ( 'NONE', #39, #53, #24, .T. ) ;
#247 = ORIENTED_EDGE ( 'NONE', *, *, #102, .T. ) ;
#248 = CALENDAR_DATE ( 2022, 7, 7 ) ;
#249 = ADVANCED_FACE ( 'NONE', ( #92, #305 ), #117, .T. ) ;
#250 = ORIENTED_EDGE ( 'NONE', *, *, #13, .F. ) ;
#251 = ORIENTED_EDGE ( 'NONE', *, *, #80, .F. ) ;
#252 = ORIENTED_EDGE ( 'NONE', *, *, #74, .F. ) ;
#253 = AXIS2_PLACEMENT_3D ( 'NONE', #89, #21, #261 ) ;
#254 = LOCAL_TIME ( 12, 25, 43.00000000000000000, #10 ) ;
#255 = ORIENTED_EDGE ( 'NONE', *, *, #291, .F. ) ;
#256 = APPROVAL ( #179, 'NEURÈENÝ' ) ;
#257 = DIRECTION ( 'NONE',  ( 1.000000000000000000, 0.000000000000000000, 0.000000000000000000 ) ) ;
#258 = DIRECTION ( 'NONE',  ( -0.000000000000000000, -0.000000000000000000, -1.000000000000000000 ) ) ;
#259 = CARTESIAN_POINT ( 'NONE',  ( 2.200000000000000178, 0.000000000000000000, 2.999999999999990674 ) ) ;
#260 = LOCAL_TIME ( 12, 25, 43.00000000000000000, #218 ) ;
#261 = DIRECTION ( 'NONE',  ( 1.000000000000000000, 0.000000000000000000, 0.000000000000000000 ) ) ;
#262 = PRODUCT_DEFINITION_SHAPE ( 'NONE', 'NONE',  #118 ) ;
#263 = DIRECTION ( 'NONE',  ( -0.000000000000000000, -0.000000000000000000, -1.000000000000000000 ) ) ;
#264 = APPLICATION_CONTEXT ( 'configuration controlled 3d designs of mechanical parts and assemblies' ) ;
#265 = DIRECTION ( 'NONE',  ( 1.000000000000000000, 0.000000000000000000, 0.000000000000000000 ) ) ;
#266 = VECTOR ( 'NONE', #108, 1000.000000000000000 ) ;
#267 = EDGE_CURVE ( 'NONE', #197, #38, #71, .T. ) ;
#268 = DIRECTION ( 'NONE',  ( -0.000000000000000000, -0.000000000000000000, -1.000000000000000000 ) ) ;
#269 = PERSON_AND_ORGANIZATION_ROLE ( 'design_owner' ) ;
#270 = ORIENTED_EDGE ( 'NONE', *, *, #287, .T. ) ;
#271 = PERSON_AND_ORGANIZATION_ROLE ( 'creator' ) ;
#272 = EDGE_LOOP ( 'NONE', ( #17, #252 ) ) ;
#273 = ORIENTED_EDGE ( 'NONE', *, *, #307, .F. ) ;
#274 = EDGE_LOOP ( 'NONE', ( #294, #247, #16, #87 ) ) ;
#275 = CIRCLE ( 'NONE', #171, 2.000000000000000000 ) ;
#276 = ADVANCED_FACE ( 'NONE', ( #233 ), #50, .T. ) ;
#277 = EDGE_LOOP ( 'NONE', ( #290, #131 ) ) ;
#278 = CARTESIAN_POINT ( 'NONE',  ( -2.000000000000000000, 0.000000000000000000, 403.0000000000000000 ) ) ;
#279 = EDGE_LOOP ( 'NONE', ( #206, #97, #185, #59 ) ) ;
#280 = CC_DESIGN_PERSON_AND_ORGANIZATION_ASSIGNMENT ( #55, #241, ( #30 ) ) ;
#281 = LINE ( 'NONE', #225, #266 ) ;
#282 = DIRECTION ( 'NONE',  ( 1.000000000000000000, 0.000000000000000000, 0.000000000000000000 ) ) ;
#283 = ADVANCED_BREP_SHAPE_REPRESENTATION ( '2bf5', ( #234, #147 ), #211 ) ;
#284 = DIRECTION ( 'NONE',  ( 1.000000000000000000, 0.000000000000000000, -0.000000000000000000 ) ) ;
#285 = CARTESIAN_POINT ( 'NONE',  ( 2.000000000000000000, 2.449293598294706414E-16, 403.0000000000000000 ) ) ;
#286 = LINE ( 'NONE', #70, #162 ) ;
#287 = EDGE_CURVE ( 'NONE', #184, #32, #142, .T. ) ;
#288 = CARTESIAN_POINT ( 'NONE',  ( 0.000000000000000000, 0.000000000000000000, 3.000000000000000000 ) ) ;
#289 = AXIS2_PLACEMENT_3D ( 'NONE', #193, #67, #20 ) ;
#290 = ORIENTED_EDGE ( 'NONE', *, *, #109, .T. ) ;
#291 = EDGE_CURVE ( 'NONE', #32, #184, #49, .T. ) ;
#292 = DIRECTION ( 'NONE',  ( -0.000000000000000000, -0.000000000000000000, -1.000000000000000000 ) ) ;
#293 = DATE_AND_TIME ( #100, #200 ) ;
#294 = ORIENTED_EDGE ( 'NONE', *, *, #51, .F. ) ;
#295 = AXIS2_PLACEMENT_3D ( 'NONE', #138, #236, #68 ) ;
#296 = SHAPE_DEFINITION_REPRESENTATION ( #262, #283 ) ;
#297 = DATE_AND_TIME ( #124, #167 ) ;
#298 = ORIENTED_EDGE ( 'NONE', *, *, #133, .F. ) ;
#299 = PLANE ( 'NONE',  #221 ) ;
#300 = AXIS2_PLACEMENT_3D ( 'NONE', #64, #104, #43 ) ;
#301 = DIRECTION ( 'NONE',  ( -0.000000000000000000, -0.000000000000000000, -1.000000000000000000 ) ) ;
#302 = ORIENTED_EDGE ( 'NONE', *, *, #174, .F. ) ;
#303 = PRODUCT ( '2bf5', '2bf5', '', ( #96 ) ) ;
#304 = DIRECTION ( 'NONE',  ( -0.000000000000000000, -0.000000000000000000, -1.000000000000000000 ) ) ;
#305 = FACE_OUTER_BOUND ( 'NONE', #152, .T. ) ;
#306 = CARTESIAN_POINT ( 'NONE',  ( 2.000000000000000000, 2.449293598294706414E-16, 3.199999999999980638 ) ) ;
#307 = EDGE_CURVE ( 'NONE', #163, #62, #88, .T. ) ;
ENDSEC;
END-ISO-10303-21;
