ISO-10303-21;
HEADER;
FILE_DESCRIPTION (( 'STEP AP203' ),
    '1' );
FILE_NAME ('3234.STEP',
    '2022-07-07T09:31:25',
    ( '' ),
    ( '' ),
    'SwSTEP 2.0',
    'SolidWorks 2019',
    '' );
FILE_SCHEMA (( 'CONFIG_CONTROL_DESIGN' ));
ENDSEC;

DATA;
#1 = EDGE_CURVE ( 'NONE', #250, #148, #213, .T. ) ;
#2 = ORIENTED_EDGE ( 'NONE', *, *, #241, .T. ) ;
#3 = ORIENTED_EDGE ( 'NONE', *, *, #1, .F. ) ;
#4 = DIRECTION ( 'NONE',  ( 1.000000000000000000, 0.000000000000000000, -0.000000000000000000 ) ) ;
#5 = ORIENTED_EDGE ( 'NONE', *, *, #92, .F. ) ;
#6 = LOCAL_TIME ( 11, 31, 25.00000000000000000, #63 ) ;
#7 = ADVANCED_FACE ( 'NONE', ( #224, #181 ), #99, .T. ) ;
#8 = ORIENTED_EDGE ( 'NONE', *, *, #188, .F. ) ;
#9 = CARTESIAN_POINT ( 'NONE',  ( 12.70000000000000107, 0.000000000000000000, 10.19999999999998685 ) ) ;
#10 = CARTESIAN_POINT ( 'NONE',  ( 0.000000000000000000, 0.000000000000000000, 10.00000000000000000 ) ) ;
#11 = DIRECTION ( 'NONE',  ( -1.000000000000000000, 0.000000000000000000, 0.000000000000000000 ) ) ;
#12 = CC_DESIGN_PERSON_AND_ORGANIZATION_ASSIGNMENT ( #68, #283, ( #197 ) ) ;
#13 = DIRECTION ( 'NONE',  ( -0.000000000000000000, -0.000000000000000000, -1.000000000000000000 ) ) ;
#14 = AXIS2_PLACEMENT_3D ( 'NONE', #15, #106, #160 ) ;
#15 = CARTESIAN_POINT ( 'NONE',  ( 0.000000000000000000, 0.000000000000000000, 10.19999999999998685 ) ) ;
#16 = DIRECTION ( 'NONE',  ( 1.000000000000000000, 0.000000000000000000, 0.000000000000000000 ) ) ;
#17 = DIRECTION ( 'NONE',  ( 0.000000000000000000, 0.000000000000000000, 1.000000000000000000 ) ) ;
#18 = DATE_AND_TIME ( #230, #272 ) ;
#19 = AXIS2_PLACEMENT_3D ( 'NONE', #27, #130, #156 ) ;
#20 = DIRECTION ( 'NONE',  ( 1.000000000000000000, 0.000000000000000000, 0.000000000000000000 ) ) ;
#21 = APPROVAL_PERSON_ORGANIZATION ( #112, #89, #206 ) ;
#22 = DATE_AND_TIME ( #23, #6 ) ;
#23 = CALENDAR_DATE ( 2022, 7, 7 ) ;
#24 = VECTOR ( 'NONE', #152, 1000.000000000000000 ) ;
#25 = VERTEX_POINT ( 'NONE', #35 ) ;
#26 = ORIENTED_EDGE ( 'NONE', *, *, #260, .T. ) ;
#27 = CARTESIAN_POINT ( 'NONE',  ( 0.000000000000000000, 0.000000000000000000, 0.000000000000000000 ) ) ;
#28 = CC_DESIGN_PERSON_AND_ORGANIZATION_ASSIGNMENT ( #164, #48, ( #238 ) ) ;
#29 = ORIENTED_EDGE ( 'NONE', *, *, #144, .T. ) ;
#30 = DIRECTION ( 'NONE',  ( 1.000000000000000000, 0.000000000000000000, -0.000000000000000000 ) ) ;
#31 = AXIS2_PLACEMENT_3D ( 'NONE', #194, #274, #126 ) ;
#32 = ORIENTED_EDGE ( 'NONE', *, *, #1, .T. ) ;
#33 = MANIFOLD_SOLID_BREP ( 'Zaoblit1', #165 ) ;
#34 = DIRECTION ( 'NONE',  ( 0.000000000000000000, 0.000000000000000000, 1.000000000000000000 ) ) ;
#35 = CARTESIAN_POINT ( 'NONE',  ( -12.50000000000000000, 0.000000000000000000, 10.19999999999998685 ) ) ;
#36 = EDGE_CURVE ( 'NONE', #262, #123, #110, .T. ) ;
#37 = DIRECTION ( 'NONE',  ( -1.000000000000000000, 1.224646799147353207E-16, 0.000000000000000000 ) ) ;
#38 = VERTEX_POINT ( 'NONE', #220 ) ;
#39 = DIRECTION ( 'NONE',  ( 0.000000000000000000, 0.000000000000000000, 1.000000000000000000 ) ) ;
#40 = CARTESIAN_POINT ( 'NONE',  ( 12.50000000000000000, 1.530808498934191521E-15, 410.0000000000000568 ) ) ;
#41 = TOROIDAL_SURFACE ( 'NONE', #14, 12.70000000000000107, 0.2000000000000000111 ) ;
#42 = FACE_OUTER_BOUND ( 'NONE', #71, .T. ) ;
#43 = SECURITY_CLASSIFICATION_LEVEL ( 'unclassified' ) ;
#44 = ADVANCED_FACE ( 'NONE', ( #243 ), #50, .T. ) ;
#45 = CALENDAR_DATE ( 2022, 7, 7 ) ;
#46 = APPROVAL_STATUS ( 'not_yet_approved' ) ;
#47 = CC_DESIGN_SECURITY_CLASSIFICATION ( #261, ( #238 ) ) ;
#48 = PERSON_AND_ORGANIZATION_ROLE ( 'design_supplier' ) ;
#49 = ORIENTED_EDGE ( 'NONE', *, *, #263, .F. ) ;
#50 = CYLINDRICAL_SURFACE ( 'NONE', #145, 16.00000000000000000 ) ;
#51 = DIRECTION ( 'NONE',  ( -1.000000000000000000, 0.000000000000000000, 0.000000000000000000 ) ) ;
#52 =( NAMED_UNIT ( * ) PLANE_ANGLE_UNIT ( ) SI_UNIT ( $, .RADIAN. ) );
#53 = ORIENTED_EDGE ( 'NONE', *, *, #163, .F. ) ;
#54 = LOCAL_TIME ( 11, 31, 25.00000000000000000, #87 ) ;
#55 = ADVANCED_FACE ( 'NONE', ( #216 ), #269, .T. ) ;
#56 = CARTESIAN_POINT ( 'NONE',  ( 0.000000000000000000, 0.000000000000000000, 410.0000000000000568 ) ) ;
#57 = ORIENTED_EDGE ( 'NONE', *, *, #157, .T. ) ;
#58 = DIRECTION ( 'NONE',  ( 0.000000000000000000, -1.000000000000000000, 0.000000000000000000 ) ) ;
#59 = ORIENTED_EDGE ( 'NONE', *, *, #260, .F. ) ;
#60 = CARTESIAN_POINT ( 'NONE',  ( -16.00000000000000000, 0.000000000000000000, 10.00000000000000000 ) ) ;
#61 = AXIS2_PLACEMENT_3D ( 'NONE', #80, #179, #177 ) ;
#62 = AXIS2_PLACEMENT_3D ( 'NONE', #56, #39, #275 ) ;
#63 = COORDINATED_UNIVERSAL_TIME_OFFSET ( 1, 0, .AHEAD. ) ;
#64 = ADVANCED_FACE ( 'NONE', ( #101 ), #276, .T. ) ;
#65 = PERSON_AND_ORGANIZATION ( #251, #69 ) ;
#66 = PERSON_AND_ORGANIZATION ( #251, #69 ) ;
#67 = PERSON_AND_ORGANIZATION ( #251, #69 ) ;
#68 = PERSON_AND_ORGANIZATION ( #251, #69 ) ;
#69 = ORGANIZATION ( 'NEURÈENÝ', 'NEURÈENÝ', '' ) ;
#70 = ORIENTED_EDGE ( 'NONE', *, *, #163, .T. ) ;
#71 = EDGE_LOOP ( 'NONE', ( #53, #298, #265, #8 ) ) ;
#72 = EDGE_CURVE ( 'NONE', #148, #250, #208, .T. ) ;
#73 = DIRECTION ( 'NONE',  ( -0.000000000000000000, -0.000000000000000000, -1.000000000000000000 ) ) ;
#74 = ORIENTED_EDGE ( 'NONE', *, *, #107, .F. ) ;
#75 = UNCERTAINTY_MEASURE_WITH_UNIT (LENGTH_MEASURE( 1.000000000000000082E-05 ), #100, 'distance_accuracy_value', 'NONE');
#76 = FACE_OUTER_BOUND ( 'NONE', #147, .T. ) ;
#77 = EDGE_LOOP ( 'NONE', ( #211, #26 ) ) ;
#78 = CARTESIAN_POINT ( 'NONE',  ( -16.00000000000000000, 0.000000000000000000, 0.000000000000000000 ) ) ;
#79 = AXIS2_PLACEMENT_3D ( 'NONE', #273, #102, #182 ) ;
#80 = CARTESIAN_POINT ( 'NONE',  ( 0.000000000000000000, 0.000000000000000000, 10.00000000000000000 ) ) ;
#81 = CARTESIAN_POINT ( 'NONE',  ( 0.000000000000000000, 0.000000000000000000, 410.0000000000000568 ) ) ;
#82 = CARTESIAN_POINT ( 'NONE',  ( 0.000000000000000000, 0.000000000000000000, 410.0000000000000568 ) ) ;
#83 = CARTESIAN_POINT ( 'NONE',  ( 12.70000000000000107, 0.000000000000000000, 9.999999999999992895 ) ) ;
#84 = PLANE ( 'NONE',  #146 ) ;
#85 = AXIS2_PLACEMENT_3D ( 'NONE', #82, #154, #4 ) ;
#86 = AXIS2_PLACEMENT_3D ( 'NONE', #225, #17, #108 ) ;
#87 = COORDINATED_UNIVERSAL_TIME_OFFSET ( 1, 0, .AHEAD. ) ;
#88 = DATE_AND_TIME ( #45, #116 ) ;
#89 = APPROVAL ( #46, 'NEURÈENÝ' ) ;
#90 = APPROVAL_ROLE ( '' ) ;
#91 = VERTEX_POINT ( 'NONE', #195 ) ;
#92 = EDGE_CURVE ( 'NONE', #262, #148, #128, .T. ) ;
#93 = ORIENTED_EDGE ( 'NONE', *, *, #241, .F. ) ;
#94 = APPROVAL ( #306, 'NEURÈENÝ' ) ;
#95 = EDGE_LOOP ( 'NONE', ( #74, #57, #32, #5 ) ) ;
#96 = ORIENTED_EDGE ( 'NONE', *, *, #144, .F. ) ;
#97 = AXIS2_PLACEMENT_3D ( 'NONE', #9, #58, #256 ) ;
#98 = CC_DESIGN_APPROVAL ( #89, ( #238 ) ) ;
#99 = PLANE ( 'NONE',  #61 ) ;
#100 =( LENGTH_UNIT ( ) NAMED_UNIT ( * ) SI_UNIT ( .MILLI., .METRE. ) );
#101 = FACE_OUTER_BOUND ( 'NONE', #124, .T. ) ;
#102 = DIRECTION ( 'NONE',  ( -0.000000000000000000, -0.000000000000000000, -1.000000000000000000 ) ) ;
#103 = FACE_OUTER_BOUND ( 'NONE', #175, .T. ) ;
#104 = DIRECTION ( 'NONE',  ( -0.000000000000000000, -0.000000000000000000, -1.000000000000000000 ) ) ;
#105 = CARTESIAN_POINT ( 'NONE',  ( -16.00000000000000000, 0.000000000000000000, 10.00000000000000000 ) ) ;
#106 = DIRECTION ( 'NONE',  ( 0.000000000000000000, 0.000000000000000000, 1.000000000000000000 ) ) ;
#107 = EDGE_CURVE ( 'NONE', #123, #262, #161, .T. ) ;
#108 = DIRECTION ( 'NONE',  ( 1.000000000000000000, 0.000000000000000000, 0.000000000000000000 ) ) ;
#109 = CARTESIAN_POINT ( 'NONE',  ( 0.000000000000000000, 0.000000000000000000, 0.000000000000000000 ) ) ;
#110 = CIRCLE ( 'NONE', #31, 16.00000000000000000 ) ;
#111 = CC_DESIGN_APPROVAL ( #203, ( #261 ) ) ;
#112 = PERSON_AND_ORGANIZATION ( #251, #69 ) ;
#113 = DATE_TIME_ROLE ( 'creation_date' ) ;
#114 = VECTOR ( 'NONE', #73, 1000.000000000000000 ) ;
#115 = SHAPE_DEFINITION_REPRESENTATION ( #131, #277 ) ;
#116 = LOCAL_TIME ( 11, 31, 25.00000000000000000, #233 ) ;
#117 = PRODUCT ( '3234', '3234', '', ( #304 ) ) ;
#118 = ORIENTED_EDGE ( 'NONE', *, *, #92, .T. ) ;
#119 = ADVANCED_FACE ( 'NONE', ( #103 ), #169, .F. ) ;
#120 = ORIENTED_EDGE ( 'NONE', *, *, #229, .F. ) ;
#121 = CC_DESIGN_DATE_AND_TIME_ASSIGNMENT ( #18, #204, ( #261 ) ) ;
#122 = EDGE_LOOP ( 'NONE', ( #2, #289 ) ) ;
#123 = VERTEX_POINT ( 'NONE', #159 ) ;
#124 = EDGE_LOOP ( 'NONE', ( #49, #29, #172, #245 ) ) ;
#125 = CIRCLE ( 'NONE', #301, 12.50000000000000000 ) ;
#126 = DIRECTION ( 'NONE',  ( 1.000000000000000000, 0.000000000000000000, 0.000000000000000000 ) ) ;
#127 = DIRECTION ( 'NONE',  ( 1.000000000000000000, 0.000000000000000000, 0.000000000000000000 ) ) ;
#128 = LINE ( 'NONE', #105, #114 ) ;
#129 = DIRECTION ( 'NONE',  ( 0.000000000000000000, 0.000000000000000000, 1.000000000000000000 ) ) ;
#130 = DIRECTION ( 'NONE',  ( 0.000000000000000000, 0.000000000000000000, 1.000000000000000000 ) ) ;
#131 = PRODUCT_DEFINITION_SHAPE ( 'NONE', 'NONE',  #197 ) ;
#132 = CC_DESIGN_PERSON_AND_ORGANIZATION_ASSIGNMENT ( #67, #303, ( #238 ) ) ;
#133 = DIRECTION ( 'NONE',  ( 0.000000000000000000, 0.000000000000000000, 1.000000000000000000 ) ) ;
#134 = AXIS2_PLACEMENT_3D ( 'NONE', #228, #104, #127 ) ;
#135 = DIRECTION ( 'NONE',  ( -0.000000000000000000, -0.000000000000000000, -1.000000000000000000 ) ) ;
#136 = PERSON_AND_ORGANIZATION_ROLE ( 'classification_officer' ) ;
#137 = APPROVAL_DATE_TIME ( #259, #89 ) ;
#138 = DATE_AND_TIME ( #186, #54 ) ;
#139 = COORDINATED_UNIVERSAL_TIME_OFFSET ( 1, 0, .AHEAD. ) ;
#140 = CALENDAR_DATE ( 2022, 7, 7 ) ;
#141 = CC_DESIGN_DATE_AND_TIME_ASSIGNMENT ( #88, #113, ( #197 ) ) ;
#142 = CIRCLE ( 'NONE', #79, 12.70000000000000107 ) ;
#143 = ORIENTED_EDGE ( 'NONE', *, *, #72, .F. ) ;
#144 = EDGE_CURVE ( 'NONE', #217, #91, #254, .T. ) ;
#145 = AXIS2_PLACEMENT_3D ( 'NONE', #222, #200, #291 ) ;
#146 = AXIS2_PLACEMENT_3D ( 'NONE', #183, #281, #30 ) ;
#147 = EDGE_LOOP ( 'NONE', ( #96, #93, #167, #70 ) ) ;
#148 = VERTEX_POINT ( 'NONE', #78 ) ;
#149 = LINE ( 'NONE', #248, #280 ) ;
#150 = PRODUCT_RELATED_PRODUCT_CATEGORY ( 'detail', '', ( #117 ) ) ;
#151 = ORIENTED_EDGE ( 'NONE', *, *, #157, .F. ) ;
#152 = DIRECTION ( 'NONE',  ( -0.000000000000000000, -0.000000000000000000, -1.000000000000000000 ) ) ;
#153 = CIRCLE ( 'NONE', #271, 0.2000000000000005107 ) ;
#154 = DIRECTION ( 'NONE',  ( 0.000000000000000000, 0.000000000000000000, 1.000000000000000000 ) ) ;
#155 = CARTESIAN_POINT ( 'NONE',  ( 12.50000000000000000, 1.530808498934191521E-15, 410.0000000000000568 ) ) ;
#156 = DIRECTION ( 'NONE',  ( 1.000000000000000000, 0.000000000000000000, 0.000000000000000000 ) ) ;
#157 = EDGE_CURVE ( 'NONE', #123, #250, #221, .T. ) ;
#158 = CARTESIAN_POINT ( 'NONE',  ( 0.000000000000000000, 0.000000000000000000, 10.00000000000000000 ) ) ;
#159 = CARTESIAN_POINT ( 'NONE',  ( 16.00000000000000000, 1.959434878635765131E-15, 10.00000000000000000 ) ) ;
#160 = DIRECTION ( 'NONE',  ( 1.000000000000000000, 0.000000000000000000, 0.000000000000000000 ) ) ;
#161 = CIRCLE ( 'NONE', #255, 16.00000000000000000 ) ;
#162 = AXIS2_PLACEMENT_3D ( 'NONE', #158, #219, #297 ) ;
#163 = EDGE_CURVE ( 'NONE', #25, #91, #193, .T. ) ;
#164 = PERSON_AND_ORGANIZATION ( #251, #69 ) ;
#165 = CLOSED_SHELL ( 'NONE', ( #278, #64, #44, #266, #7, #293, #246, #55, #119 ) ) ;
#166 = PERSON_AND_ORGANIZATION ( #251, #69 ) ;
#167 = ORIENTED_EDGE ( 'NONE', *, *, #210, .T. ) ;
#168 = EDGE_LOOP ( 'NONE', ( #143, #3 ) ) ;
#169 = TOROIDAL_SURFACE ( 'NONE', #205, 12.70000000000000107, 0.2000000000000000111 ) ;
#170 = LOCAL_TIME ( 11, 31, 25.00000000000000000, #139 ) ;
#171 = APPLICATION_CONTEXT ( 'configuration controlled 3d designs of mechanical parts and assemblies' ) ;
#172 = ORIENTED_EDGE ( 'NONE', *, *, #287, .T. ) ;
#173 = VERTEX_POINT ( 'NONE', #83 ) ;
#174 = DIRECTION ( 'NONE',  ( 1.000000000000000000, 0.000000000000000000, 0.000000000000000000 ) ) ;
#175 = EDGE_LOOP ( 'NONE', ( #120, #307, #296, #59 ) ) ;
#176 = CARTESIAN_POINT ( 'NONE',  ( -12.50000000000000000, 0.000000000000000000, 410.0000000000000568 ) ) ;
#177 = DIRECTION ( 'NONE',  ( 1.000000000000000000, 0.000000000000000000, -0.000000000000000000 ) ) ;
#178 = CARTESIAN_POINT ( 'NONE',  ( 0.000000000000000000, 0.000000000000000000, 410.0000000000000568 ) ) ;
#179 = DIRECTION ( 'NONE',  ( 0.000000000000000000, 0.000000000000000000, 1.000000000000000000 ) ) ;
#180 = DIRECTION ( 'NONE',  ( -0.000000000000000000, -0.000000000000000000, -1.000000000000000000 ) ) ;
#181 = FACE_OUTER_BOUND ( 'NONE', #286, .T. ) ;
#182 = DIRECTION ( 'NONE',  ( 1.000000000000000000, 0.000000000000000000, 0.000000000000000000 ) ) ;
#183 = CARTESIAN_POINT ( 'NONE',  ( 0.000000000000000000, 0.000000000000000000, 0.000000000000000000 ) ) ;
#184 = CC_DESIGN_APPROVAL ( #94, ( #197 ) ) ;
#185 = APPROVAL_DATE_TIME ( #138, #203 ) ;
#186 = CALENDAR_DATE ( 2022, 7, 7 ) ;
#187 = COORDINATED_UNIVERSAL_TIME_OFFSET ( 1, 0, .AHEAD. ) ;
#188 = EDGE_CURVE ( 'NONE', #91, #173, #247, .T. ) ;
#189 = APPLICATION_PROTOCOL_DEFINITION ( 'international standard', 'config_control_design', 1994, #249 ) ;
#190 = ORIENTED_EDGE ( 'NONE', *, *, #36, .F. ) ;
#191 = APPROVAL_PERSON_ORGANIZATION ( #166, #203, #90 ) ;
#192 = CARTESIAN_POINT ( 'NONE',  ( 0.000000000000000000, 0.000000000000000000, 410.0000000000000568 ) ) ;
#193 = CIRCLE ( 'NONE', #237, 12.50000000000000000 ) ;
#194 = CARTESIAN_POINT ( 'NONE',  ( 0.000000000000000000, 0.000000000000000000, 10.00000000000000000 ) ) ;
#195 = CARTESIAN_POINT ( 'NONE',  ( 12.50000000000000000, 1.530808498934191521E-15, 10.19999999999998685 ) ) ;
#196 = DIRECTION ( 'NONE',  ( 1.000000000000000000, 0.000000000000000000, 0.000000000000000000 ) ) ;
#197 = PRODUCT_DEFINITION ( 'NEZNÁMÝ', '', #238, #227 ) ;
#198 = FACE_OUTER_BOUND ( 'NONE', #212, .T. ) ;
#199 = AXIS2_PLACEMENT_3D ( 'NONE', #109, #235, #20 ) ;
#200 = DIRECTION ( 'NONE',  ( -0.000000000000000000, -0.000000000000000000, -1.000000000000000000 ) ) ;
#201 = CARTESIAN_POINT ( 'NONE',  ( 16.00000000000000000, 1.959434878635765131E-15, 0.000000000000000000 ) ) ;
#202 = FACE_OUTER_BOUND ( 'NONE', #168, .T. ) ;
#203 = APPROVAL ( #207, 'NEURÈENÝ' ) ;
#204 = DATE_TIME_ROLE ( 'classification_date' ) ;
#205 = AXIS2_PLACEMENT_3D ( 'NONE', #226, #133, #16 ) ;
#206 = APPROVAL_ROLE ( '' ) ;
#207 = APPROVAL_STATUS ( 'not_yet_approved' ) ;
#208 = CIRCLE ( 'NONE', #257, 16.00000000000000000 ) ;
#209 =( GEOMETRIC_REPRESENTATION_CONTEXT ( 3 ) GLOBAL_UNCERTAINTY_ASSIGNED_CONTEXT ( ( #75 ) ) GLOBAL_UNIT_ASSIGNED_CONTEXT ( ( #100, #52, #231 ) ) REPRESENTATION_CONTEXT ( 'NONE', 'WORKASPACE' ) );
#210 = EDGE_CURVE ( 'NONE', #239, #25, #149, .T. ) ;
#211 = ORIENTED_EDGE ( 'NONE', *, *, #215, .T. ) ;
#212 = EDGE_LOOP ( 'NONE', ( #151, #190, #118, #242 ) ) ;
#213 = CIRCLE ( 'NONE', #19, 16.00000000000000000 ) ;
#214 = ORIENTED_EDGE ( 'NONE', *, *, #107, .T. ) ;
#215 = EDGE_CURVE ( 'NONE', #173, #38, #142, .T. ) ;
#216 = FACE_OUTER_BOUND ( 'NONE', #122, .T. ) ;
#217 = VERTEX_POINT ( 'NONE', #155 ) ;
#218 = CIRCLE ( 'NONE', #62, 12.50000000000000000 ) ;
#219 = DIRECTION ( 'NONE',  ( -0.000000000000000000, -0.000000000000000000, -1.000000000000000000 ) ) ;
#220 = CARTESIAN_POINT ( 'NONE',  ( -12.70000000000000107, 1.555301434917138630E-15, 9.999999999999992895 ) ) ;
#221 = LINE ( 'NONE', #295, #240 ) ;
#222 = CARTESIAN_POINT ( 'NONE',  ( 0.000000000000000000, 0.000000000000000000, 10.00000000000000000 ) ) ;
#223 = CYLINDRICAL_SURFACE ( 'NONE', #267, 12.50000000000000000 ) ;
#224 = FACE_BOUND ( 'NONE', #77, .T. ) ;
#225 = CARTESIAN_POINT ( 'NONE',  ( 0.000000000000000000, 0.000000000000000000, 10.19999999999998685 ) ) ;
#226 = CARTESIAN_POINT ( 'NONE',  ( 0.000000000000000000, 0.000000000000000000, 10.19999999999998685 ) ) ;
#227 = DESIGN_CONTEXT ( 'detailed design', #249, 'design' ) ;
#228 = CARTESIAN_POINT ( 'NONE',  ( 0.000000000000000000, 0.000000000000000000, 10.00000000000000000 ) ) ;
#229 = EDGE_CURVE ( 'NONE', #25, #38, #153, .T. ) ;
#230 = CALENDAR_DATE ( 2022, 7, 7 ) ;
#231 =( NAMED_UNIT ( * ) SI_UNIT ( $, .STERADIAN. ) SOLID_ANGLE_UNIT ( ) );
#232 = CIRCLE ( 'NONE', #86, 12.50000000000000000 ) ;
#233 = COORDINATED_UNIVERSAL_TIME_OFFSET ( 1, 0, .AHEAD. ) ;
#234 = CC_DESIGN_PERSON_AND_ORGANIZATION_ASSIGNMENT ( #65, #136, ( #261 ) ) ;
#235 = DIRECTION ( 'NONE',  ( 0.000000000000000000, 0.000000000000000000, 1.000000000000000000 ) ) ;
#236 = APPLICATION_PROTOCOL_DEFINITION ( 'international standard', 'config_control_design', 1994, #171 ) ;
#237 = AXIS2_PLACEMENT_3D ( 'NONE', #244, #34, #292 ) ;
#238 = PRODUCT_DEFINITION_FORMATION_WITH_SPECIFIED_SOURCE ( 'LIBOVOLNÝ', '', #117, .NOT_KNOWN. ) ;
#239 = VERTEX_POINT ( 'NONE', #176 ) ;
#240 = VECTOR ( 'NONE', #299, 1000.000000000000000 ) ;
#241 = EDGE_CURVE ( 'NONE', #239, #217, #125, .T. ) ;
#242 = ORIENTED_EDGE ( 'NONE', *, *, #72, .T. ) ;
#243 = FACE_OUTER_BOUND ( 'NONE', #95, .T. ) ;
#244 = CARTESIAN_POINT ( 'NONE',  ( 0.000000000000000000, 0.000000000000000000, 10.19999999999998685 ) ) ;
#245 = ORIENTED_EDGE ( 'NONE', *, *, #210, .F. ) ;
#246 = ADVANCED_FACE ( 'NONE', ( #76 ), #223, .T. ) ;
#247 = CIRCLE ( 'NONE', #97, 0.2000000000000005107 ) ;
#248 = CARTESIAN_POINT ( 'NONE',  ( -12.50000000000000000, 0.000000000000000000, 410.0000000000000568 ) ) ;
#249 = APPLICATION_CONTEXT ( 'configuration controlled 3d designs of mechanical parts and assemblies' ) ;
#250 = VERTEX_POINT ( 'NONE', #201 ) ;
#251 = PERSON ( 'NEURÈENÝ', 'NEURÈENÝ', 'NEURÈENÝ', ('NEURÈENÝ'), ('NEURÈENÝ'), ('NEURÈENÝ') ) ;
#252 = DIRECTION ( 'NONE',  ( 1.000000000000000000, 0.000000000000000000, 0.000000000000000000 ) ) ;
#253 = CARTESIAN_POINT ( 'NONE',  ( -12.70000000000000107, 1.555301434917138630E-15, 10.19999999999998685 ) ) ;
#254 = LINE ( 'NONE', #40, #24 ) ;
#255 = AXIS2_PLACEMENT_3D ( 'NONE', #10, #270, #174 ) ;
#256 = DIRECTION ( 'NONE',  ( 0.000000000000000000, 0.000000000000000000, -1.000000000000000000 ) ) ;
#257 = AXIS2_PLACEMENT_3D ( 'NONE', #294, #290, #252 ) ;
#258 = APPROVAL_ROLE ( '' ) ;
#259 = DATE_AND_TIME ( #140, #170 ) ;
#260 = EDGE_CURVE ( 'NONE', #38, #173, #284, .T. ) ;
#261 = SECURITY_CLASSIFICATION ( '', '', #43 ) ;
#262 = VERTEX_POINT ( 'NONE', #60 ) ;
#263 = EDGE_CURVE ( 'NONE', #217, #239, #218, .T. ) ;
#264 = AXIS2_PLACEMENT_3D ( 'NONE', #192, #13, #51 ) ;
#265 = ORIENTED_EDGE ( 'NONE', *, *, #215, .F. ) ;
#266 = ADVANCED_FACE ( 'NONE', ( #198 ), #300, .T. ) ;
#267 = AXIS2_PLACEMENT_3D ( 'NONE', #81, #135, #11 ) ;
#268 = ORIENTED_EDGE ( 'NONE', *, *, #36, .T. ) ;
#269 = PLANE ( 'NONE',  #85 ) ;
#270 = DIRECTION ( 'NONE',  ( 0.000000000000000000, 0.000000000000000000, 1.000000000000000000 ) ) ;
#271 = AXIS2_PLACEMENT_3D ( 'NONE', #253, #279, #37 ) ;
#272 = LOCAL_TIME ( 11, 31, 25.00000000000000000, #187 ) ;
#273 = CARTESIAN_POINT ( 'NONE',  ( 0.000000000000000000, 0.000000000000000000, 10.00000000000000000 ) ) ;
#274 = DIRECTION ( 'NONE',  ( 0.000000000000000000, 0.000000000000000000, 1.000000000000000000 ) ) ;
#275 = DIRECTION ( 'NONE',  ( 1.000000000000000000, 0.000000000000000000, 0.000000000000000000 ) ) ;
#276 = CYLINDRICAL_SURFACE ( 'NONE', #264, 12.50000000000000000 ) ;
#277 = ADVANCED_BREP_SHAPE_REPRESENTATION ( '3234', ( #33, #199 ), #209 ) ;
#278 = ADVANCED_FACE ( 'NONE', ( #42 ), #41, .F. ) ;
#279 = DIRECTION ( 'NONE',  ( 1.224646799147353207E-16, 1.000000000000000000, -0.000000000000000000 ) ) ;
#280 = VECTOR ( 'NONE', #180, 1000.000000000000000 ) ;
#281 = DIRECTION ( 'NONE',  ( 0.000000000000000000, 0.000000000000000000, 1.000000000000000000 ) ) ;
#282 = PERSON_AND_ORGANIZATION_ROLE ( 'design_owner' ) ;
#283 = PERSON_AND_ORGANIZATION_ROLE ( 'creator' ) ;
#284 = CIRCLE ( 'NONE', #134, 12.70000000000000107 ) ;
#285 = PERSON_AND_ORGANIZATION ( #251, #69 ) ;
#286 = EDGE_LOOP ( 'NONE', ( #268, #214 ) ) ;
#287 = EDGE_CURVE ( 'NONE', #91, #25, #232, .T. ) ;
#288 = CC_DESIGN_PERSON_AND_ORGANIZATION_ASSIGNMENT ( #285, #282, ( #117 ) ) ;
#289 = ORIENTED_EDGE ( 'NONE', *, *, #263, .T. ) ;
#290 = DIRECTION ( 'NONE',  ( 0.000000000000000000, 0.000000000000000000, 1.000000000000000000 ) ) ;
#291 = DIRECTION ( 'NONE',  ( -1.000000000000000000, 0.000000000000000000, 0.000000000000000000 ) ) ;
#292 = DIRECTION ( 'NONE',  ( 1.000000000000000000, 0.000000000000000000, 0.000000000000000000 ) ) ;
#293 = ADVANCED_FACE ( 'NONE', ( #202 ), #84, .F. ) ;
#294 = CARTESIAN_POINT ( 'NONE',  ( 0.000000000000000000, 0.000000000000000000, 0.000000000000000000 ) ) ;
#295 = CARTESIAN_POINT ( 'NONE',  ( 16.00000000000000000, 1.959434878635765131E-15, 10.00000000000000000 ) ) ;
#296 = ORIENTED_EDGE ( 'NONE', *, *, #188, .T. ) ;
#297 = DIRECTION ( 'NONE',  ( -1.000000000000000000, 0.000000000000000000, 0.000000000000000000 ) ) ;
#298 = ORIENTED_EDGE ( 'NONE', *, *, #229, .T. ) ;
#299 = DIRECTION ( 'NONE',  ( -0.000000000000000000, -0.000000000000000000, -1.000000000000000000 ) ) ;
#300 = CYLINDRICAL_SURFACE ( 'NONE', #162, 16.00000000000000000 ) ;
#301 = AXIS2_PLACEMENT_3D ( 'NONE', #178, #129, #196 ) ;
#302 = APPROVAL_DATE_TIME ( #22, #94 ) ;
#303 = PERSON_AND_ORGANIZATION_ROLE ( 'creator' ) ;
#304 = MECHANICAL_CONTEXT ( 'NONE', #171, 'mechanical' ) ;
#305 = APPROVAL_PERSON_ORGANIZATION ( #66, #94, #258 ) ;
#306 = APPROVAL_STATUS ( 'not_yet_approved' ) ;
#307 = ORIENTED_EDGE ( 'NONE', *, *, #287, .F. ) ;
ENDSEC;
END-ISO-10303-21;
