ISO-10303-21;
HEADER;
FILE_DESCRIPTION (( 'STEP AP203' ),
    '1' );
FILE_NAME ('24f9.STEP',
    '2022-07-07T10:27:11',
    ( '' ),
    ( '' ),
    'SwSTEP 2.0',
    'SolidWorks 2019',
    '' );
FILE_SCHEMA (( 'CONFIG_CONTROL_DESIGN' ));
ENDSEC;

DATA;
#1 = VERTEX_POINT ( 'NONE', #256 ) ;
#2 = PERSON_AND_ORGANIZATION_ROLE ( 'classification_officer' ) ;
#3 = ORIENTED_EDGE ( 'NONE', *, *, #59, .T. ) ;
#4 = PERSON_AND_ORGANIZATION_ROLE ( 'creator' ) ;
#5 = CARTESIAN_POINT ( 'NONE',  ( 3.500000000000000444, 4.286263797015737088E-16, 3.000000000000000000 ) ) ;
#6 = EDGE_LOOP ( 'NONE', ( #139, #118 ) ) ;
#7 = CARTESIAN_POINT ( 'NONE',  ( 0.000000000000000000, 0.000000000000000000, 3.000000000000000000 ) ) ;
#8 = CYLINDRICAL_SURFACE ( 'NONE', #131, 1.750000000000000000 ) ;
#9 = APPROVAL ( #255, 'NEURÈENÝ' ) ;
#10 = AXIS2_PLACEMENT_3D ( 'NONE', #11, #228, #279 ) ;
#11 = CARTESIAN_POINT ( 'NONE',  ( 0.000000000000000000, 0.000000000000000000, 3.199999999999980638 ) ) ;
#12 = CARTESIAN_POINT ( 'NONE',  ( 1.750000000000000000, 2.143131898507868297E-16, 503.0000000000000000 ) ) ;
#13 = CARTESIAN_POINT ( 'NONE',  ( 1.950000000000000178, 0.000000000000000000, 3.199999999999980638 ) ) ;
#14 = CARTESIAN_POINT ( 'NONE',  ( -1.950000000000000178, 2.388061258337339136E-16, 3.199999999999980638 ) ) ;
#15 = CIRCLE ( 'NONE', #236, 3.500000000000000444 ) ;
#16 = APPROVAL_ROLE ( '' ) ;
#17 = VERTEX_POINT ( 'NONE', #41 ) ;
#18 = PERSON_AND_ORGANIZATION ( #167, #85 ) ;
#19 = EDGE_CURVE ( 'NONE', #74, #207, #281, .T. ) ;
#20 = ORIENTED_EDGE ( 'NONE', *, *, #251, .T. ) ;
#21 = CIRCLE ( 'NONE', #223, 1.950000000000000178 ) ;
#22 = PERSON_AND_ORGANIZATION ( #167, #85 ) ;
#23 = CARTESIAN_POINT ( 'NONE',  ( 0.000000000000000000, 0.000000000000000000, 3.000000000000000000 ) ) ;
#24 = ORIENTED_EDGE ( 'NONE', *, *, #213, .F. ) ;
#25 = APPROVAL_STATUS ( 'not_yet_approved' ) ;
#26 = CC_DESIGN_PERSON_AND_ORGANIZATION_ASSIGNMENT ( #22, #2, ( #34 ) ) ;
#27 = CARTESIAN_POINT ( 'NONE',  ( 0.000000000000000000, 0.000000000000000000, 3.199999999999980638 ) ) ;
#28 = ORIENTED_EDGE ( 'NONE', *, *, #284, .F. ) ;
#29 = CARTESIAN_POINT ( 'NONE',  ( 0.000000000000000000, 0.000000000000000000, 503.0000000000000000 ) ) ;
#30 = CIRCLE ( 'NONE', #150, 1.750000000000000000 ) ;
#31 = CARTESIAN_POINT ( 'NONE',  ( 0.000000000000000000, 0.000000000000000000, 0.000000000000000000 ) ) ;
#32 = CIRCLE ( 'NONE', #44, 3.500000000000000444 ) ;
#33 = CARTESIAN_POINT ( 'NONE',  ( 0.000000000000000000, 0.000000000000000000, 3.000000000000000000 ) ) ;
#34 = SECURITY_CLASSIFICATION ( '', '', #42 ) ;
#35 = DIRECTION ( 'NONE',  ( -1.000000000000000000, 0.000000000000000000, 0.000000000000000000 ) ) ;
#36 = DIRECTION ( 'NONE',  ( -0.000000000000000000, -0.000000000000000000, -1.000000000000000000 ) ) ;
#37 = DIRECTION ( 'NONE',  ( 0.000000000000000000, 0.000000000000000000, -1.000000000000000000 ) ) ;
#38 = CIRCLE ( 'NONE', #203, 3.500000000000000444 ) ;
#39 = ORIENTED_EDGE ( 'NONE', *, *, #269, .F. ) ;
#40 = PERSON_AND_ORGANIZATION_ROLE ( 'design_owner' ) ;
#41 = CARTESIAN_POINT ( 'NONE',  ( 1.750000000000000000, 2.143131898507868297E-16, 503.0000000000000000 ) ) ;
#42 = SECURITY_CLASSIFICATION_LEVEL ( 'unclassified' ) ;
#43 = ORIENTED_EDGE ( 'NONE', *, *, #109, .F. ) ;
#44 = AXIS2_PLACEMENT_3D ( 'NONE', #63, #110, #133 ) ;
#45 = DATE_TIME_ROLE ( 'classification_date' ) ;
#46 = DIRECTION ( 'NONE',  ( 1.000000000000000000, 0.000000000000000000, 0.000000000000000000 ) ) ;
#47 = ORIENTED_EDGE ( 'NONE', *, *, #75, .F. ) ;
#48 = FACE_OUTER_BOUND ( 'NONE', #264, .T. ) ;
#49 = VERTEX_POINT ( 'NONE', #58 ) ;
#50 = CC_DESIGN_APPROVAL ( #257, ( #34 ) ) ;
#51 = CC_DESIGN_PERSON_AND_ORGANIZATION_ASSIGNMENT ( #72, #40, ( #189 ) ) ;
#52 = DIRECTION ( 'NONE',  ( 1.000000000000000000, 0.000000000000000000, 0.000000000000000000 ) ) ;
#53 = AXIS2_PLACEMENT_3D ( 'NONE', #148, #263, #46 ) ;
#54 = CC_DESIGN_APPROVAL ( #9, ( #87 ) ) ;
#55 = DIRECTION ( 'NONE',  ( 0.000000000000000000, 0.000000000000000000, 1.000000000000000000 ) ) ;
#56 = DIRECTION ( 'NONE',  ( -0.000000000000000000, -0.000000000000000000, -1.000000000000000000 ) ) ;
#57 = LINE ( 'NONE', #224, #306 ) ;
#58 = CARTESIAN_POINT ( 'NONE',  ( 3.500000000000000444, 4.286263797015737088E-16, 0.000000000000000000 ) ) ;
#59 = EDGE_CURVE ( 'NONE', #215, #1, #83, .T. ) ;
#60 = AXIS2_PLACEMENT_3D ( 'NONE', #125, #77, #101 ) ;
#61 = DIRECTION ( 'NONE',  ( -0.000000000000000000, -0.000000000000000000, -1.000000000000000000 ) ) ;
#62 = CLOSED_SHELL ( 'NONE', ( #221, #176, #78, #132, #265, #141, #196, #287, #116 ) ) ;
#63 = CARTESIAN_POINT ( 'NONE',  ( 0.000000000000000000, 0.000000000000000000, 3.000000000000000000 ) ) ;
#64 = CALENDAR_DATE ( 2022, 7, 7 ) ;
#65 = APPROVAL_PERSON_ORGANIZATION ( #205, #184, #172 ) ;
#66 = DATE_TIME_ROLE ( 'creation_date' ) ;
#67 = EDGE_LOOP ( 'NONE', ( #98, #191, #149, #28 ) ) ;
#68 = APPLICATION_PROTOCOL_DEFINITION ( 'international standard', 'config_control_design', 1994, #88 ) ;
#69 = PERSON_AND_ORGANIZATION ( #167, #85 ) ;
#70 = CARTESIAN_POINT ( 'NONE',  ( -1.750000000000000000, 0.000000000000000000, 503.0000000000000000 ) ) ;
#71 = EDGE_LOOP ( 'NONE', ( #147, #261 ) ) ;
#72 = PERSON_AND_ORGANIZATION ( #167, #85 ) ;
#73 = DIRECTION ( 'NONE',  ( -0.000000000000000000, -0.000000000000000000, -1.000000000000000000 ) ) ;
#74 = VERTEX_POINT ( 'NONE', #199 ) ;
#75 = EDGE_CURVE ( 'NONE', #215, #186, #15, .T. ) ;
#76 = DIRECTION ( 'NONE',  ( -0.000000000000000000, -0.000000000000000000, -1.000000000000000000 ) ) ;
#77 = DIRECTION ( 'NONE',  ( 0.000000000000000000, 0.000000000000000000, 1.000000000000000000 ) ) ;
#78 = ADVANCED_FACE ( 'NONE', ( #82 ), #154, .T. ) ;
#79 = AXIS2_PLACEMENT_3D ( 'NONE', #31, #55, #260 ) ;
#80 = EDGE_CURVE ( 'NONE', #17, #174, #81, .T. ) ;
#81 = LINE ( 'NONE', #12, #274 ) ;
#82 = FACE_OUTER_BOUND ( 'NONE', #144, .T. ) ;
#83 = LINE ( 'NONE', #247, #178 ) ;
#84 = AXIS2_PLACEMENT_3D ( 'NONE', #276, #299, #157 ) ;
#85 = ORGANIZATION ( 'NEURÈENÝ', 'NEURÈENÝ', '' ) ;
#86 = FACE_OUTER_BOUND ( 'NONE', #233, .T. ) ;
#87 = PRODUCT_DEFINITION_FORMATION_WITH_SPECIFIED_SOURCE ( 'LIBOVOLNÝ', '', #189, .NOT_KNOWN. ) ;
#88 = APPLICATION_CONTEXT ( 'configuration controlled 3d designs of mechanical parts and assemblies' ) ;
#89 = ORIENTED_EDGE ( 'NONE', *, *, #59, .F. ) ;
#90 = DIRECTION ( 'NONE',  ( 1.000000000000000000, 0.000000000000000000, 0.000000000000000000 ) ) ;
#91 = ORIENTED_EDGE ( 'NONE', *, *, #100, .F. ) ;
#92 = COORDINATED_UNIVERSAL_TIME_OFFSET ( 1, 0, .AHEAD. ) ;
#93 =( NAMED_UNIT ( * ) SI_UNIT ( $, .STERADIAN. ) SOLID_ANGLE_UNIT ( ) );
#94 = ORIENTED_EDGE ( 'NONE', *, *, #109, .T. ) ;
#95 = DATE_AND_TIME ( #288, #179 ) ;
#96 = TOROIDAL_SURFACE ( 'NONE', #53, 1.950000000000000178, 0.2000000000000000111 ) ;
#97 = DIRECTION ( 'NONE',  ( -0.000000000000000000, -0.000000000000000000, -1.000000000000000000 ) ) ;
#98 = ORIENTED_EDGE ( 'NONE', *, *, #19, .F. ) ;
#99 = DIRECTION ( 'NONE',  ( 1.000000000000000000, 0.000000000000000000, 0.000000000000000000 ) ) ;
#100 = EDGE_CURVE ( 'NONE', #74, #174, #249, .T. ) ;
#101 = DIRECTION ( 'NONE',  ( 1.000000000000000000, 0.000000000000000000, -0.000000000000000000 ) ) ;
#102 = DESIGN_CONTEXT ( 'detailed design', #258, 'design' ) ;
#103 = AXIS2_PLACEMENT_3D ( 'NONE', #273, #278, #181 ) ;
#104 =( GEOMETRIC_REPRESENTATION_CONTEXT ( 3 ) GLOBAL_UNCERTAINTY_ASSIGNED_CONTEXT ( ( #219 ) ) GLOBAL_UNIT_ASSIGNED_CONTEXT ( ( #218, #295, #93 ) ) REPRESENTATION_CONTEXT ( 'NONE', 'WORKASPACE' ) );
#105 = EDGE_CURVE ( 'NONE', #174, #115, #135, .T. ) ;
#106 = DIRECTION ( 'NONE',  ( -1.000000000000000000, 0.000000000000000000, 0.000000000000000000 ) ) ;
#107 = AXIS2_PLACEMENT_3D ( 'NONE', #200, #112, #201 ) ;
#108 = CC_DESIGN_APPROVAL ( #184, ( #204 ) ) ;
#109 = EDGE_CURVE ( 'NONE', #186, #215, #32, .T. ) ;
#110 = DIRECTION ( 'NONE',  ( 0.000000000000000000, 0.000000000000000000, 1.000000000000000000 ) ) ;
#111 = LOCAL_TIME ( 12, 27, 11.00000000000000000, #230 ) ;
#112 = DIRECTION ( 'NONE',  ( 0.000000000000000000, 0.000000000000000000, 1.000000000000000000 ) ) ;
#113 = CARTESIAN_POINT ( 'NONE',  ( 0.000000000000000000, 0.000000000000000000, 3.000000000000000000 ) ) ;
#114 = DATE_AND_TIME ( #166, #151 ) ;
#115 = VERTEX_POINT ( 'NONE', #227 ) ;
#116 = ADVANCED_FACE ( 'NONE', ( #155 ), #128, .F. ) ;
#117 = PERSON_AND_ORGANIZATION ( #167, #85 ) ;
#118 = ORIENTED_EDGE ( 'NONE', *, *, #251, .F. ) ;
#119 = CALENDAR_DATE ( 2022, 7, 7 ) ;
#120 = CARTESIAN_POINT ( 'NONE',  ( 0.000000000000000000, 0.000000000000000000, 503.0000000000000000 ) ) ;
#121 = EDGE_LOOP ( 'NONE', ( #267, #94 ) ) ;
#122 = CC_DESIGN_PERSON_AND_ORGANIZATION_ASSIGNMENT ( #164, #4, ( #204 ) ) ;
#123 = FACE_OUTER_BOUND ( 'NONE', #121, .T. ) ;
#124 = ORIENTED_EDGE ( 'NONE', *, *, #206, .F. ) ;
#125 = CARTESIAN_POINT ( 'NONE',  ( 0.000000000000000000, 0.000000000000000000, 3.000000000000000000 ) ) ;
#126 = AXIS2_PLACEMENT_3D ( 'NONE', #14, #130, #134 ) ;
#127 = CC_DESIGN_PERSON_AND_ORGANIZATION_ASSIGNMENT ( #18, #262, ( #87 ) ) ;
#128 = TOROIDAL_SURFACE ( 'NONE', #107, 1.950000000000000178, 0.2000000000000000111 ) ;
#129 = PLANE ( 'NONE',  #103 ) ;
#130 = DIRECTION ( 'NONE',  ( 1.224646799147353207E-16, 1.000000000000000000, -0.000000000000000000 ) ) ;
#131 = AXIS2_PLACEMENT_3D ( 'NONE', #177, #76, #292 ) ;
#132 = ADVANCED_FACE ( 'NONE', ( #225 ), #300, .T. ) ;
#133 = DIRECTION ( 'NONE',  ( 1.000000000000000000, 0.000000000000000000, 0.000000000000000000 ) ) ;
#134 = DIRECTION ( 'NONE',  ( -1.000000000000000000, 1.224646799147354686E-16, 0.000000000000000000 ) ) ;
#135 = CIRCLE ( 'NONE', #194, 0.2000000000000000944 ) ;
#136 = ORIENTED_EDGE ( 'NONE', *, *, #19, .T. ) ;
#137 = PRODUCT_RELATED_PRODUCT_CATEGORY ( 'detail', '', ( #189 ) ) ;
#138 = COORDINATED_UNIVERSAL_TIME_OFFSET ( 1, 0, .AHEAD. ) ;
#139 = ORIENTED_EDGE ( 'NONE', *, *, #160, .F. ) ;
#140 = CARTESIAN_POINT ( 'NONE',  ( 0.000000000000000000, 0.000000000000000000, 0.000000000000000000 ) ) ;
#141 = ADVANCED_FACE ( 'NONE', ( #303 ), #129, .F. ) ;
#142 = AXIS2_PLACEMENT_3D ( 'NONE', #140, #209, #90 ) ;
#143 = CARTESIAN_POINT ( 'NONE',  ( -3.500000000000000444, 0.000000000000000000, 3.000000000000000000 ) ) ;
#144 = EDGE_LOOP ( 'NONE', ( #43, #238, #20, #89 ) ) ;
#145 = DATE_AND_TIME ( #119, #244 ) ;
#146 = DIRECTION ( 'NONE',  ( 1.000000000000000000, 0.000000000000000000, -0.000000000000000000 ) ) ;
#147 = ORIENTED_EDGE ( 'NONE', *, *, #206, .T. ) ;
#148 = CARTESIAN_POINT ( 'NONE',  ( 0.000000000000000000, 0.000000000000000000, 3.199999999999980638 ) ) ;
#149 = ORIENTED_EDGE ( 'NONE', *, *, #105, .T. ) ;
#150 = AXIS2_PLACEMENT_3D ( 'NONE', #27, #268, #52 ) ;
#151 = LOCAL_TIME ( 12, 27, 11.00000000000000000, #138 ) ;
#152 = DIRECTION ( 'NONE',  ( 0.000000000000000000, 0.000000000000000000, 1.000000000000000000 ) ) ;
#153 = AXIS2_PLACEMENT_3D ( 'NONE', #173, #245, #242 ) ;
#154 = CYLINDRICAL_SURFACE ( 'NONE', #210, 3.500000000000000444 ) ;
#155 = FACE_OUTER_BOUND ( 'NONE', #67, .T. ) ;
#156 = EDGE_CURVE ( 'NONE', #211, #74, #57, .T. ) ;
#157 = DIRECTION ( 'NONE',  ( -1.000000000000000000, 0.000000000000000000, 0.000000000000000000 ) ) ;
#158 = AXIS2_PLACEMENT_3D ( 'NONE', #7, #97, #99 ) ;
#159 = DIRECTION ( 'NONE',  ( 1.000000000000000000, 0.000000000000000000, 0.000000000000000000 ) ) ;
#160 = EDGE_CURVE ( 'NONE', #1, #49, #38, .T. ) ;
#161 = CYLINDRICAL_SURFACE ( 'NONE', #229, 1.750000000000000000 ) ;
#162 = CIRCLE ( 'NONE', #272, 1.750000000000000000 ) ;
#163 = SHAPE_DEFINITION_REPRESENTATION ( #197, #222 ) ;
#164 = PERSON_AND_ORGANIZATION ( #167, #85 ) ;
#165 = ORIENTED_EDGE ( 'NONE', *, *, #156, .T. ) ;
#166 = CALENDAR_DATE ( 2022, 7, 7 ) ;
#167 = PERSON ( 'NEURÈENÝ', 'NEURÈENÝ', 'NEURÈENÝ', ('NEURÈENÝ'), ('NEURÈENÝ'), ('NEURÈENÝ') ) ;
#168 = ORIENTED_EDGE ( 'NONE', *, *, #301, .T. ) ;
#169 = DATE_AND_TIME ( #212, #111 ) ;
#170 = LINE ( 'NONE', #289, #291 ) ;
#171 = ORIENTED_EDGE ( 'NONE', *, *, #234, .F. ) ;
#172 = APPROVAL_ROLE ( '' ) ;
#173 = CARTESIAN_POINT ( 'NONE',  ( 0.000000000000000000, 0.000000000000000000, 503.0000000000000000 ) ) ;
#174 = VERTEX_POINT ( 'NONE', #252 ) ;
#175 = DIRECTION ( 'NONE',  ( 1.000000000000000000, 0.000000000000000000, 0.000000000000000000 ) ) ;
#176 = ADVANCED_FACE ( 'NONE', ( #86 ), #161, .T. ) ;
#177 = CARTESIAN_POINT ( 'NONE',  ( 0.000000000000000000, 0.000000000000000000, 503.0000000000000000 ) ) ;
#178 = VECTOR ( 'NONE', #248, 1000.000000000000000 ) ;
#179 = LOCAL_TIME ( 12, 27, 11.00000000000000000, #92 ) ;
#180 = CARTESIAN_POINT ( 'NONE',  ( 0.000000000000000000, 0.000000000000000000, 503.0000000000000000 ) ) ;
#181 = DIRECTION ( 'NONE',  ( 1.000000000000000000, 0.000000000000000000, -0.000000000000000000 ) ) ;
#182 = DIRECTION ( 'NONE',  ( 0.000000000000000000, -1.000000000000000000, 0.000000000000000000 ) ) ;
#183 = DIRECTION ( 'NONE',  ( 1.000000000000000000, 0.000000000000000000, 0.000000000000000000 ) ) ;
#184 = APPROVAL ( #25, 'NEURÈENÝ' ) ;
#185 = DIRECTION ( 'NONE',  ( 0.000000000000000000, 0.000000000000000000, 1.000000000000000000 ) ) ;
#186 = VERTEX_POINT ( 'NONE', #5 ) ;
#187 = EDGE_LOOP ( 'NONE', ( #91, #136, #39, #286 ) ) ;
#188 = APPROVAL_DATE_TIME ( #145, #184 ) ;
#189 = PRODUCT ( '24f9', '24f9', '', ( #282 ) ) ;
#190 = CARTESIAN_POINT ( 'NONE',  ( -1.950000000000000178, 2.388061258337339136E-16, 2.999999999999990674 ) ) ;
#191 = ORIENTED_EDGE ( 'NONE', *, *, #301, .F. ) ;
#192 = FACE_OUTER_BOUND ( 'NONE', #187, .T. ) ;
#193 = ORIENTED_EDGE ( 'NONE', *, *, #156, .F. ) ;
#194 = AXIS2_PLACEMENT_3D ( 'NONE', #13, #182, #37 ) ;
#195 = DIRECTION ( 'NONE',  ( 1.000000000000000000, 0.000000000000000000, 0.000000000000000000 ) ) ;
#196 = ADVANCED_FACE ( 'NONE', ( #48 ), #8, .T. ) ;
#197 = PRODUCT_DEFINITION_SHAPE ( 'NONE', 'NONE',  #204 ) ;
#198 = MANIFOLD_SOLID_BREP ( 'Zaoblit1', #62 ) ;
#199 = CARTESIAN_POINT ( 'NONE',  ( -1.750000000000000000, 0.000000000000000000, 3.199999999999980638 ) ) ;
#200 = CARTESIAN_POINT ( 'NONE',  ( 0.000000000000000000, 0.000000000000000000, 3.199999999999980638 ) ) ;
#201 = DIRECTION ( 'NONE',  ( 1.000000000000000000, 0.000000000000000000, 0.000000000000000000 ) ) ;
#202 = DIRECTION ( 'NONE',  ( -0.000000000000000000, -0.000000000000000000, -1.000000000000000000 ) ) ;
#203 = AXIS2_PLACEMENT_3D ( 'NONE', #305, #275, #159 ) ;
#204 = PRODUCT_DEFINITION ( 'NEZNÁMÝ', '', #87, #102 ) ;
#205 = PERSON_AND_ORGANIZATION ( #167, #85 ) ;
#206 = EDGE_CURVE ( 'NONE', #211, #17, #162, .T. ) ;
#207 = VERTEX_POINT ( 'NONE', #190 ) ;
#208 = CIRCLE ( 'NONE', #79, 3.500000000000000444 ) ;
#209 = DIRECTION ( 'NONE',  ( 0.000000000000000000, 0.000000000000000000, 1.000000000000000000 ) ) ;
#210 = AXIS2_PLACEMENT_3D ( 'NONE', #33, #202, #35 ) ;
#211 = VERTEX_POINT ( 'NONE', #70 ) ;
#212 = CALENDAR_DATE ( 2022, 7, 7 ) ;
#213 = EDGE_CURVE ( 'NONE', #186, #49, #170, .T. ) ;
#214 = ORIENTED_EDGE ( 'NONE', *, *, #80, .F. ) ;
#215 = VERTEX_POINT ( 'NONE', #143 ) ;
#216 = CIRCLE ( 'NONE', #158, 1.950000000000000178 ) ;
#217 = PLANE ( 'NONE',  #60 ) ;
#218 =( LENGTH_UNIT ( ) NAMED_UNIT ( * ) SI_UNIT ( .MILLI., .METRE. ) );
#219 = UNCERTAINTY_MEASURE_WITH_UNIT (LENGTH_MEASURE( 1.000000000000000082E-05 ), #218, 'distance_accuracy_value', 'NONE');
#220 = CC_DESIGN_SECURITY_CLASSIFICATION ( #34, ( #87 ) ) ;
#221 = ADVANCED_FACE ( 'NONE', ( #192 ), #96, .F. ) ;
#222 = ADVANCED_BREP_SHAPE_REPRESENTATION ( '24f9', ( #198, #142 ), #104 ) ;
#223 = AXIS2_PLACEMENT_3D ( 'NONE', #23, #237, #195 ) ;
#224 = CARTESIAN_POINT ( 'NONE',  ( -1.750000000000000000, 0.000000000000000000, 503.0000000000000000 ) ) ;
#225 = FACE_OUTER_BOUND ( 'NONE', #290, .T. ) ;
#226 = CC_DESIGN_DATE_AND_TIME_ASSIGNMENT ( #95, #45, ( #34 ) ) ;
#227 = CARTESIAN_POINT ( 'NONE',  ( 1.950000000000000178, 0.000000000000000000, 2.999999999999990674 ) ) ;
#228 = DIRECTION ( 'NONE',  ( 0.000000000000000000, 0.000000000000000000, 1.000000000000000000 ) ) ;
#229 = AXIS2_PLACEMENT_3D ( 'NONE', #180, #56, #106 ) ;
#230 = COORDINATED_UNIVERSAL_TIME_OFFSET ( 1, 0, .AHEAD. ) ;
#231 = ORIENTED_EDGE ( 'NONE', *, *, #284, .T. ) ;
#232 = APPROVAL_DATE_TIME ( #114, #9 ) ;
#233 = EDGE_LOOP ( 'NONE', ( #171, #254, #168, #193 ) ) ;
#234 = EDGE_CURVE ( 'NONE', #17, #211, #270, .T. ) ;
#235 = APPLICATION_PROTOCOL_DEFINITION ( 'international standard', 'config_control_design', 1994, #258 ) ;
#236 = AXIS2_PLACEMENT_3D ( 'NONE', #113, #185, #183 ) ;
#237 = DIRECTION ( 'NONE',  ( -0.000000000000000000, -0.000000000000000000, -1.000000000000000000 ) ) ;
#238 = ORIENTED_EDGE ( 'NONE', *, *, #213, .T. ) ;
#239 = PERSON_AND_ORGANIZATION ( #167, #85 ) ;
#240 = FACE_OUTER_BOUND ( 'NONE', #71, .T. ) ;
#241 = EDGE_LOOP ( 'NONE', ( #293, #231 ) ) ;
#242 = DIRECTION ( 'NONE',  ( 1.000000000000000000, 0.000000000000000000, 0.000000000000000000 ) ) ;
#243 = ORIENTED_EDGE ( 'NONE', *, *, #100, .T. ) ;
#244 = LOCAL_TIME ( 12, 27, 11.00000000000000000, #285 ) ;
#245 = DIRECTION ( 'NONE',  ( 0.000000000000000000, 0.000000000000000000, 1.000000000000000000 ) ) ;
#246 = APPROVAL_PERSON_ORGANIZATION ( #239, #257, #250 ) ;
#247 = CARTESIAN_POINT ( 'NONE',  ( -3.500000000000000444, 0.000000000000000000, 3.000000000000000000 ) ) ;
#248 = DIRECTION ( 'NONE',  ( -0.000000000000000000, -0.000000000000000000, -1.000000000000000000 ) ) ;
#249 = CIRCLE ( 'NONE', #10, 1.750000000000000000 ) ;
#250 = APPROVAL_ROLE ( '' ) ;
#251 = EDGE_CURVE ( 'NONE', #49, #1, #208, .T. ) ;
#252 = CARTESIAN_POINT ( 'NONE',  ( 1.750000000000000000, 2.143131898507868297E-16, 3.199999999999980638 ) ) ;
#253 = COORDINATED_UNIVERSAL_TIME_OFFSET ( 1, 0, .AHEAD. ) ;
#254 = ORIENTED_EDGE ( 'NONE', *, *, #80, .T. ) ;
#255 = APPROVAL_STATUS ( 'not_yet_approved' ) ;
#256 = CARTESIAN_POINT ( 'NONE',  ( -3.500000000000000444, 0.000000000000000000, 0.000000000000000000 ) ) ;
#257 = APPROVAL ( #304, 'NEURÈENÝ' ) ;
#258 = APPLICATION_CONTEXT ( 'configuration controlled 3d designs of mechanical parts and assemblies' ) ;
#259 = PERSON_AND_ORGANIZATION_ROLE ( 'design_supplier' ) ;
#260 = DIRECTION ( 'NONE',  ( 1.000000000000000000, 0.000000000000000000, 0.000000000000000000 ) ) ;
#261 = ORIENTED_EDGE ( 'NONE', *, *, #234, .T. ) ;
#262 = PERSON_AND_ORGANIZATION_ROLE ( 'creator' ) ;
#263 = DIRECTION ( 'NONE',  ( 0.000000000000000000, 0.000000000000000000, 1.000000000000000000 ) ) ;
#264 = EDGE_LOOP ( 'NONE', ( #214, #124, #165, #243 ) ) ;
#265 = ADVANCED_FACE ( 'NONE', ( #266, #123 ), #217, .T. ) ;
#266 = FACE_BOUND ( 'NONE', #241, .T. ) ;
#267 = ORIENTED_EDGE ( 'NONE', *, *, #75, .T. ) ;
#268 = DIRECTION ( 'NONE',  ( 0.000000000000000000, 0.000000000000000000, 1.000000000000000000 ) ) ;
#269 = EDGE_CURVE ( 'NONE', #115, #207, #216, .T. ) ;
#270 = CIRCLE ( 'NONE', #153, 1.750000000000000000 ) ;
#271 = DIRECTION ( 'NONE',  ( 0.000000000000000000, 0.000000000000000000, 1.000000000000000000 ) ) ;
#272 = AXIS2_PLACEMENT_3D ( 'NONE', #29, #271, #175 ) ;
#273 = CARTESIAN_POINT ( 'NONE',  ( 0.000000000000000000, 0.000000000000000000, 0.000000000000000000 ) ) ;
#274 = VECTOR ( 'NONE', #36, 1000.000000000000000 ) ;
#275 = DIRECTION ( 'NONE',  ( 0.000000000000000000, 0.000000000000000000, 1.000000000000000000 ) ) ;
#276 = CARTESIAN_POINT ( 'NONE',  ( 0.000000000000000000, 0.000000000000000000, 3.000000000000000000 ) ) ;
#277 = APPROVAL_DATE_TIME ( #302, #257 ) ;
#278 = DIRECTION ( 'NONE',  ( 0.000000000000000000, 0.000000000000000000, 1.000000000000000000 ) ) ;
#279 = DIRECTION ( 'NONE',  ( 1.000000000000000000, 0.000000000000000000, 0.000000000000000000 ) ) ;
#280 = AXIS2_PLACEMENT_3D ( 'NONE', #120, #152, #146 ) ;
#281 = CIRCLE ( 'NONE', #126, 0.1999999999999998723 ) ;
#282 = MECHANICAL_CONTEXT ( 'NONE', #88, 'mechanical' ) ;
#283 = APPROVAL_PERSON_ORGANIZATION ( #117, #9, #16 ) ;
#284 = EDGE_CURVE ( 'NONE', #207, #115, #21, .T. ) ;
#285 = COORDINATED_UNIVERSAL_TIME_OFFSET ( 1, 0, .AHEAD. ) ;
#286 = ORIENTED_EDGE ( 'NONE', *, *, #105, .F. ) ;
#287 = ADVANCED_FACE ( 'NONE', ( #240 ), #294, .T. ) ;
#288 = CALENDAR_DATE ( 2022, 7, 7 ) ;
#289 = CARTESIAN_POINT ( 'NONE',  ( 3.500000000000000444, 4.286263797015737088E-16, 3.000000000000000000 ) ) ;
#290 = EDGE_LOOP ( 'NONE', ( #24, #47, #3, #307 ) ) ;
#291 = VECTOR ( 'NONE', #73, 1000.000000000000000 ) ;
#292 = DIRECTION ( 'NONE',  ( -1.000000000000000000, 0.000000000000000000, 0.000000000000000000 ) ) ;
#293 = ORIENTED_EDGE ( 'NONE', *, *, #269, .T. ) ;
#294 = PLANE ( 'NONE',  #280 ) ;
#295 =( NAMED_UNIT ( * ) PLANE_ANGLE_UNIT ( ) SI_UNIT ( $, .RADIAN. ) );
#296 = CC_DESIGN_PERSON_AND_ORGANIZATION_ASSIGNMENT ( #69, #259, ( #87 ) ) ;
#297 = LOCAL_TIME ( 12, 27, 11.00000000000000000, #253 ) ;
#298 = CC_DESIGN_DATE_AND_TIME_ASSIGNMENT ( #169, #66, ( #204 ) ) ;
#299 = DIRECTION ( 'NONE',  ( -0.000000000000000000, -0.000000000000000000, -1.000000000000000000 ) ) ;
#300 = CYLINDRICAL_SURFACE ( 'NONE', #84, 3.500000000000000444 ) ;
#301 = EDGE_CURVE ( 'NONE', #174, #74, #30, .T. ) ;
#302 = DATE_AND_TIME ( #64, #297 ) ;
#303 = FACE_OUTER_BOUND ( 'NONE', #6, .T. ) ;
#304 = APPROVAL_STATUS ( 'not_yet_approved' ) ;
#305 = CARTESIAN_POINT ( 'NONE',  ( 0.000000000000000000, 0.000000000000000000, 0.000000000000000000 ) ) ;
#306 = VECTOR ( 'NONE', #61, 1000.000000000000000 ) ;
#307 = ORIENTED_EDGE ( 'NONE', *, *, #160, .T. ) ;
ENDSEC;
END-ISO-10303-21;
