ISO-10303-21;
HEADER;
FILE_DESCRIPTION (( 'STEP AP203' ),
    '1' );
FILE_NAME ('2f88.STEP',
    '2022-07-07T10:17:36',
    ( '' ),
    ( '' ),
    'SwSTEP 2.0',
    'SolidWorks 2019',
    '' );
FILE_SCHEMA (( 'CONFIG_CONTROL_DESIGN' ));
ENDSEC;

DATA;
#1 = MANIFOLD_SOLID_BREP ( 'Zaoblit1', #164 ) ;
#2 = CC_DESIGN_PERSON_AND_ORGANIZATION_ASSIGNMENT ( #220, #100, ( #237 ) ) ;
#3 = CC_DESIGN_APPROVAL ( #127, ( #163 ) ) ;
#4 = DIRECTION ( 'NONE',  ( 1.000000000000000000, 0.000000000000000000, 0.000000000000000000 ) ) ;
#5 = CALENDAR_DATE ( 2022, 7, 7 ) ;
#6 = DIRECTION ( 'NONE',  ( 0.000000000000000000, 0.000000000000000000, 1.000000000000000000 ) ) ;
#7 = DIRECTION ( 'NONE',  ( 1.000000000000000000, 0.000000000000000000, -0.000000000000000000 ) ) ;
#8 = AXIS2_PLACEMENT_3D ( 'NONE', #81, #218, #4 ) ;
#9 = CARTESIAN_POINT ( 'NONE',  ( 0.000000000000000000, 0.000000000000000000, 253.0000000000000000 ) ) ;
#10 = LINE ( 'NONE', #108, #21 ) ;
#11 = ORIENTED_EDGE ( 'NONE', *, *, #203, .T. ) ;
#12 = MECHANICAL_CONTEXT ( 'NONE', #29, 'mechanical' ) ;
#13 = CARTESIAN_POINT ( 'NONE',  ( 0.000000000000000000, 0.000000000000000000, 3.000000000000000000 ) ) ;
#14 = PERSON_AND_ORGANIZATION ( #140, #53 ) ;
#15 = LOCAL_TIME ( 12, 17, 36.00000000000000000, #173 ) ;
#16 = ADVANCED_FACE ( 'NONE', ( #208 ), #84, .F. ) ;
#17 = ORIENTED_EDGE ( 'NONE', *, *, #170, .T. ) ;
#18 = EDGE_CURVE ( 'NONE', #68, #213, #66, .T. ) ;
#19 = ORIENTED_EDGE ( 'NONE', *, *, #303, .T. ) ;
#20 = CC_DESIGN_PERSON_AND_ORGANIZATION_ASSIGNMENT ( #124, #291, ( #163 ) ) ;
#21 = VECTOR ( 'NONE', #185, 1000.000000000000000 ) ;
#22 = CIRCLE ( 'NONE', #307, 0.2000000000000000944 ) ;
#23 = PERSON_AND_ORGANIZATION_ROLE ( 'creator' ) ;
#24 = EDGE_CURVE ( 'NONE', #213, #68, #245, .T. ) ;
#25 = CARTESIAN_POINT ( 'NONE',  ( -5.000000000000000000, 0.000000000000000000, 3.000000000000000000 ) ) ;
#26 = PERSON_AND_ORGANIZATION ( #140, #53 ) ;
#27 = CARTESIAN_POINT ( 'NONE',  ( 2.600000000000000089, 3.184081677783118191E-16, 253.0000000000000000 ) ) ;
#28 = FACE_OUTER_BOUND ( 'NONE', #262, .T. ) ;
#29 = APPLICATION_CONTEXT ( 'configuration controlled 3d designs of mechanical parts and assemblies' ) ;
#30 = ORIENTED_EDGE ( 'NONE', *, *, #203, .F. ) ;
#31 = CARTESIAN_POINT ( 'NONE',  ( 2.799999999999999822, 0.000000000000000000, 3.000000000000004441 ) ) ;
#32 = EDGE_CURVE ( 'NONE', #95, #94, #186, .T. ) ;
#33 = CARTESIAN_POINT ( 'NONE',  ( 5.000000000000000000, 6.123233995736766282E-16, 3.000000000000000000 ) ) ;
#34 = AXIS2_PLACEMENT_3D ( 'NONE', #201, #177, #57 ) ;
#35 = DIRECTION ( 'NONE',  ( 1.000000000000000000, 0.000000000000000000, 0.000000000000000000 ) ) ;
#36 = APPLICATION_PROTOCOL_DEFINITION ( 'international standard', 'config_control_design', 1994, #29 ) ;
#37 = EDGE_LOOP ( 'NONE', ( #159, #82 ) ) ;
#38 = AXIS2_PLACEMENT_3D ( 'NONE', #112, #136, #114 ) ;
#39 = PERSON_AND_ORGANIZATION ( #140, #53 ) ;
#40 = APPROVAL_PERSON_ORGANIZATION ( #248, #127, #215 ) ;
#41 = ADVANCED_FACE ( 'NONE', ( #300 ), #183, .T. ) ;
#42 = ORIENTED_EDGE ( 'NONE', *, *, #284, .F. ) ;
#43 = ORIENTED_EDGE ( 'NONE', *, *, #255, .F. ) ;
#44 = APPROVAL_PERSON_ORGANIZATION ( #14, #144, #266 ) ;
#45 = ORIENTED_EDGE ( 'NONE', *, *, #91, .F. ) ;
#46 = AXIS2_PLACEMENT_3D ( 'NONE', #9, #247, #7 ) ;
#47 = DATE_TIME_ROLE ( 'classification_date' ) ;
#48 = ADVANCED_FACE ( 'NONE', ( #181 ), #268, .F. ) ;
#49 = DIRECTION ( 'NONE',  ( -1.000000000000000000, 0.000000000000000000, 0.000000000000000000 ) ) ;
#50 = SHAPE_DEFINITION_REPRESENTATION ( #151, #56 ) ;
#51 = AXIS2_PLACEMENT_3D ( 'NONE', #277, #207, #61 ) ;
#52 = FACE_OUTER_BOUND ( 'NONE', #240, .T. ) ;
#53 = ORGANIZATION ( 'NEURÈENÝ', 'NEURÈENÝ', '' ) ;
#54 = DIRECTION ( 'NONE',  ( -0.000000000000000000, -0.000000000000000000, -1.000000000000000000 ) ) ;
#55 = ORIENTED_EDGE ( 'NONE', *, *, #243, .F. ) ;
#56 = ADVANCED_BREP_SHAPE_REPRESENTATION ( '2f88', ( #1, #192 ), #219 ) ;
#57 = DIRECTION ( 'NONE',  ( 1.000000000000000000, 0.000000000000000000, -0.000000000000000000 ) ) ;
#58 = DIRECTION ( 'NONE',  ( 0.000000000000000000, 0.000000000000000000, 1.000000000000000000 ) ) ;
#59 = ORIENTED_EDGE ( 'NONE', *, *, #156, .F. ) ;
#60 = DIRECTION ( 'NONE',  ( 1.000000000000000000, 0.000000000000000000, 0.000000000000000000 ) ) ;
#61 = DIRECTION ( 'NONE',  ( -1.000000000000000000, 0.000000000000000000, 0.000000000000000000 ) ) ;
#62 = PERSON_AND_ORGANIZATION_ROLE ( 'design_owner' ) ;
#63 = AXIS2_PLACEMENT_3D ( 'NONE', #153, #251, #133 ) ;
#64 = CC_DESIGN_APPROVAL ( #144, ( #224 ) ) ;
#65 = ADVANCED_FACE ( 'NONE', ( #265 ), #296, .T. ) ;
#66 = CIRCLE ( 'NONE', #120, 5.000000000000000000 ) ;
#67 = EDGE_LOOP ( 'NONE', ( #59, #79, #118, #42 ) ) ;
#68 = VERTEX_POINT ( 'NONE', #25 ) ;
#69 = APPROVAL_DATE_TIME ( #217, #144 ) ;
#70 = ADVANCED_FACE ( 'NONE', ( #28 ), #292, .T. ) ;
#71 = APPROVAL_DATE_TIME ( #216, #117 ) ;
#72 = TOROIDAL_SURFACE ( 'NONE', #187, 2.799999999999999822, 0.2000000000000000111 ) ;
#73 = CARTESIAN_POINT ( 'NONE',  ( 0.000000000000000000, 0.000000000000000000, 253.0000000000000000 ) ) ;
#74 = CARTESIAN_POINT ( 'NONE',  ( 2.600000000000000089, 3.184081677783118191E-16, 3.200000000000008171 ) ) ;
#75 = PERSON_AND_ORGANIZATION_ROLE ( 'design_supplier' ) ;
#76 = AXIS2_PLACEMENT_3D ( 'NONE', #106, #54, #146 ) ;
#77 = CARTESIAN_POINT ( 'NONE',  ( -2.799999999999999822, 3.429011037612589276E-16, 3.000000000000004441 ) ) ;
#78 = CARTESIAN_POINT ( 'NONE',  ( 2.600000000000000089, 3.184081677783118191E-16, 253.0000000000000000 ) ) ;
#79 = ORIENTED_EDGE ( 'NONE', *, *, #142, .T. ) ;
#80 = DIRECTION ( 'NONE',  ( 1.000000000000000000, 0.000000000000000000, 0.000000000000000000 ) ) ;
#81 = CARTESIAN_POINT ( 'NONE',  ( 0.000000000000000000, 0.000000000000000000, 0.000000000000000000 ) ) ;
#82 = ORIENTED_EDGE ( 'NONE', *, *, #24, .T. ) ;
#83 = DIRECTION ( 'NONE',  ( -0.000000000000000000, -0.000000000000000000, -1.000000000000000000 ) ) ;
#84 = PLANE ( 'NONE',  #172 ) ;
#85 = EDGE_CURVE ( 'NONE', #272, #132, #306, .T. ) ;
#86 = DIRECTION ( 'NONE',  ( -0.000000000000000000, -0.000000000000000000, -1.000000000000000000 ) ) ;
#87 = CC_DESIGN_APPROVAL ( #117, ( #237 ) ) ;
#88 = DIRECTION ( 'NONE',  ( 0.000000000000000000, 0.000000000000000000, -1.000000000000000000 ) ) ;
#89 = UNCERTAINTY_MEASURE_WITH_UNIT (LENGTH_MEASURE( 1.000000000000000082E-05 ), #184, 'distance_accuracy_value', 'NONE');
#90 = CARTESIAN_POINT ( 'NONE',  ( 0.000000000000000000, 0.000000000000000000, 3.000000000000000000 ) ) ;
#91 = EDGE_CURVE ( 'NONE', #180, #141, #200, .T. ) ;
#92 = CIRCLE ( 'NONE', #233, 2.600000000000000089 ) ;
#93 = AXIS2_PLACEMENT_3D ( 'NONE', #128, #102, #150 ) ;
#94 = VERTEX_POINT ( 'NONE', #31 ) ;
#95 = VERTEX_POINT ( 'NONE', #77 ) ;
#96 = SECURITY_CLASSIFICATION_LEVEL ( 'unclassified' ) ;
#97 = ADVANCED_FACE ( 'NONE', ( #131 ), #72, .F. ) ;
#98 = COORDINATED_UNIVERSAL_TIME_OFFSET ( 1, 0, .AHEAD. ) ;
#99 = PLANE ( 'NONE',  #46 ) ;
#100 = PERSON_AND_ORGANIZATION_ROLE ( 'classification_officer' ) ;
#101 = PRODUCT_RELATED_PRODUCT_CATEGORY ( 'detail', '', ( #221 ) ) ;
#102 = DIRECTION ( 'NONE',  ( -0.000000000000000000, -0.000000000000000000, -1.000000000000000000 ) ) ;
#103 = DIRECTION ( 'NONE',  ( 0.000000000000000000, 0.000000000000000000, 1.000000000000000000 ) ) ;
#104 = CIRCLE ( 'NONE', #254, 2.600000000000000089 ) ;
#105 = EDGE_LOOP ( 'NONE', ( #154, #138, #152, #189 ) ) ;
#106 = CARTESIAN_POINT ( 'NONE',  ( 0.000000000000000000, 0.000000000000000000, 253.0000000000000000 ) ) ;
#107 = ORIENTED_EDGE ( 'NONE', *, *, #32, .F. ) ;
#108 = CARTESIAN_POINT ( 'NONE',  ( 5.000000000000000000, 6.123233995736766282E-16, 3.000000000000000000 ) ) ;
#109 = EDGE_CURVE ( 'NONE', #68, #141, #179, .T. ) ;
#110 = CARTESIAN_POINT ( 'NONE',  ( -2.600000000000000089, 0.000000000000000000, 3.200000000000008171 ) ) ;
#111 = AXIS2_PLACEMENT_3D ( 'NONE', #210, #86, #299 ) ;
#112 = CARTESIAN_POINT ( 'NONE',  ( 0.000000000000000000, 0.000000000000000000, 3.000000000000000000 ) ) ;
#113 = DIRECTION ( 'NONE',  ( 0.000000000000000000, 0.000000000000000000, 1.000000000000000000 ) ) ;
#114 = DIRECTION ( 'NONE',  ( 1.000000000000000000, 0.000000000000000000, 0.000000000000000000 ) ) ;
#115 = LOCAL_TIME ( 12, 17, 36.00000000000000000, #242 ) ;
#116 =( NAMED_UNIT ( * ) SI_UNIT ( $, .STERADIAN. ) SOLID_ANGLE_UNIT ( ) );
#117 = APPROVAL ( #148, 'NEURÈENÝ' ) ;
#118 = ORIENTED_EDGE ( 'NONE', *, *, #255, .T. ) ;
#119 = ORIENTED_EDGE ( 'NONE', *, *, #274, .F. ) ;
#120 = AXIS2_PLACEMENT_3D ( 'NONE', #13, #232, #35 ) ;
#121 = LOCAL_TIME ( 12, 17, 36.00000000000000000, #193 ) ;
#122 = PERSON_AND_ORGANIZATION ( #140, #53 ) ;
#123 = CC_DESIGN_PERSON_AND_ORGANIZATION_ASSIGNMENT ( #26, #23, ( #224 ) ) ;
#124 = PERSON_AND_ORGANIZATION ( #140, #53 ) ;
#125 = APPROVAL_STATUS ( 'not_yet_approved' ) ;
#126 = CARTESIAN_POINT ( 'NONE',  ( 0.000000000000000000, 0.000000000000000000, 253.0000000000000000 ) ) ;
#127 = APPROVAL ( #125, 'NEURÈENÝ' ) ;
#128 = CARTESIAN_POINT ( 'NONE',  ( 0.000000000000000000, 0.000000000000000000, 3.000000000000000000 ) ) ;
#129 = CALENDAR_DATE ( 2022, 7, 7 ) ;
#130 = PLANE ( 'NONE',  #34 ) ;
#131 = FACE_OUTER_BOUND ( 'NONE', #297, .T. ) ;
#132 = VERTEX_POINT ( 'NONE', #74 ) ;
#133 = DIRECTION ( 'NONE',  ( -1.000000000000000000, 1.224646799147353207E-16, 0.000000000000000000 ) ) ;
#134 = AXIS2_PLACEMENT_3D ( 'NONE', #90, #155, #253 ) ;
#135 = ADVANCED_FACE ( 'NONE', ( #52 ), #99, .T. ) ;
#136 = DIRECTION ( 'NONE',  ( 0.000000000000000000, 0.000000000000000000, 1.000000000000000000 ) ) ;
#137 = CARTESIAN_POINT ( 'NONE',  ( 0.000000000000000000, 0.000000000000000000, 0.000000000000000000 ) ) ;
#138 = ORIENTED_EDGE ( 'NONE', *, *, #243, .T. ) ;
#139 = LOCAL_TIME ( 12, 17, 36.00000000000000000, #286 ) ;
#140 = PERSON ( 'NEURÈENÝ', 'NEURÈENÝ', 'NEURÈENÝ', ('NEURÈENÝ'), ('NEURÈENÝ'), ('NEURÈENÝ') ) ;
#141 = VERTEX_POINT ( 'NONE', #271 ) ;
#142 = EDGE_CURVE ( 'NONE', #165, #132, #288, .T. ) ;
#143 = ORIENTED_EDGE ( 'NONE', *, *, #32, .T. ) ;
#144 = APPROVAL ( #211, 'NEURÈENÝ' ) ;
#145 = APPROVAL_ROLE ( '' ) ;
#146 = DIRECTION ( 'NONE',  ( -1.000000000000000000, 0.000000000000000000, 0.000000000000000000 ) ) ;
#147 = AXIS2_PLACEMENT_3D ( 'NONE', #169, #149, #290 ) ;
#148 = APPROVAL_STATUS ( 'not_yet_approved' ) ;
#149 = DIRECTION ( 'NONE',  ( 0.000000000000000000, 0.000000000000000000, 1.000000000000000000 ) ) ;
#150 = DIRECTION ( 'NONE',  ( 1.000000000000000000, 0.000000000000000000, 0.000000000000000000 ) ) ;
#151 = PRODUCT_DEFINITION_SHAPE ( 'NONE', 'NONE',  #224 ) ;
#152 = ORIENTED_EDGE ( 'NONE', *, *, #91, .T. ) ;
#153 = CARTESIAN_POINT ( 'NONE',  ( -2.799999999999999822, 3.429011037612588783E-16, 3.200000000000008171 ) ) ;
#154 = ORIENTED_EDGE ( 'NONE', *, *, #24, .F. ) ;
#155 = DIRECTION ( 'NONE',  ( -0.000000000000000000, -0.000000000000000000, -1.000000000000000000 ) ) ;
#156 = EDGE_CURVE ( 'NONE', #165, #241, #104, .T. ) ;
#157 = CARTESIAN_POINT ( 'NONE',  ( 0.000000000000000000, 0.000000000000000000, 0.000000000000000000 ) ) ;
#158 = CYLINDRICAL_SURFACE ( 'NONE', #134, 5.000000000000000000 ) ;
#159 = ORIENTED_EDGE ( 'NONE', *, *, #18, .T. ) ;
#160 = DESIGN_CONTEXT ( 'detailed design', #227, 'design' ) ;
#161 = AXIS2_PLACEMENT_3D ( 'NONE', #126, #204, #49 ) ;
#162 = AXIS2_PLACEMENT_3D ( 'NONE', #229, #206, #60 ) ;
#163 = PRODUCT_DEFINITION_FORMATION_WITH_SPECIFIED_SOURCE ( 'LIBOVOLNÝ', '', #221, .NOT_KNOWN. ) ;
#164 = CLOSED_SHELL ( 'NONE', ( #97, #65, #41, #231, #188, #16, #70, #135, #48 ) ) ;
#165 = VERTEX_POINT ( 'NONE', #27 ) ;
#166 = ORIENTED_EDGE ( 'NONE', *, *, #303, .F. ) ;
#167 = DATE_TIME_ROLE ( 'creation_date' ) ;
#168 = CIRCLE ( 'NONE', #93, 2.799999999999999822 ) ;
#169 = CARTESIAN_POINT ( 'NONE',  ( 0.000000000000000000, 0.000000000000000000, 3.200000000000008171 ) ) ;
#170 = EDGE_CURVE ( 'NONE', #94, #95, #168, .T. ) ;
#171 = DIRECTION ( 'NONE',  ( 0.000000000000000000, 0.000000000000000000, 1.000000000000000000 ) ) ;
#172 = AXIS2_PLACEMENT_3D ( 'NONE', #157, #256, #258 ) ;
#173 = COORDINATED_UNIVERSAL_TIME_OFFSET ( 1, 0, .AHEAD. ) ;
#174 = DIRECTION ( 'NONE',  ( -0.000000000000000000, -0.000000000000000000, -1.000000000000000000 ) ) ;
#175 = ORIENTED_EDGE ( 'NONE', *, *, #170, .F. ) ;
#176 = APPROVAL_PERSON_ORGANIZATION ( #122, #117, #145 ) ;
#177 = DIRECTION ( 'NONE',  ( 0.000000000000000000, 0.000000000000000000, 1.000000000000000000 ) ) ;
#178 = DIRECTION ( 'NONE',  ( 0.000000000000000000, 0.000000000000000000, 1.000000000000000000 ) ) ;
#179 = LINE ( 'NONE', #194, #263 ) ;
#180 = VERTEX_POINT ( 'NONE', #270 ) ;
#181 = FACE_OUTER_BOUND ( 'NONE', #250, .T. ) ;
#182 = CARTESIAN_POINT ( 'NONE',  ( 2.799999999999999822, 0.000000000000000000, 3.200000000000008171 ) ) ;
#183 = CYLINDRICAL_SURFACE ( 'NONE', #51, 5.000000000000000000 ) ;
#184 =( LENGTH_UNIT ( ) NAMED_UNIT ( * ) SI_UNIT ( .MILLI., .METRE. ) );
#185 = DIRECTION ( 'NONE',  ( -0.000000000000000000, -0.000000000000000000, -1.000000000000000000 ) ) ;
#186 = CIRCLE ( 'NONE', #111, 2.799999999999999822 ) ;
#187 = AXIS2_PLACEMENT_3D ( 'NONE', #228, #171, #225 ) ;
#188 = ADVANCED_FACE ( 'NONE', ( #249, #293 ), #130, .T. ) ;
#189 = ORIENTED_EDGE ( 'NONE', *, *, #109, .F. ) ;
#190 = AXIS2_PLACEMENT_3D ( 'NONE', #199, #6, #222 ) ;
#191 = ORIENTED_EDGE ( 'NONE', *, *, #156, .T. ) ;
#192 = AXIS2_PLACEMENT_3D ( 'NONE', #137, #178, #234 ) ;
#193 = COORDINATED_UNIVERSAL_TIME_OFFSET ( 1, 0, .AHEAD. ) ;
#194 = CARTESIAN_POINT ( 'NONE',  ( -5.000000000000000000, 0.000000000000000000, 3.000000000000000000 ) ) ;
#195 = CC_DESIGN_PERSON_AND_ORGANIZATION_ASSIGNMENT ( #39, #62, ( #221 ) ) ;
#196 = PERSON_AND_ORGANIZATION ( #140, #53 ) ;
#197 = DIRECTION ( 'NONE',  ( 1.000000000000000000, 0.000000000000000000, 0.000000000000000000 ) ) ;
#198 = DATE_AND_TIME ( #269, #121 ) ;
#199 = CARTESIAN_POINT ( 'NONE',  ( 0.000000000000000000, 0.000000000000000000, 3.200000000000008171 ) ) ;
#200 = CIRCLE ( 'NONE', #8, 5.000000000000000000 ) ;
#201 = CARTESIAN_POINT ( 'NONE',  ( 0.000000000000000000, 0.000000000000000000, 3.000000000000000000 ) ) ;
#202 = EDGE_LOOP ( 'NONE', ( #17, #143 ) ) ;
#203 = EDGE_CURVE ( 'NONE', #272, #95, #281, .T. ) ;
#204 = DIRECTION ( 'NONE',  ( -0.000000000000000000, -0.000000000000000000, -1.000000000000000000 ) ) ;
#205 = ORIENTED_EDGE ( 'NONE', *, *, #284, .T. ) ;
#206 = DIRECTION ( 'NONE',  ( 0.000000000000000000, 0.000000000000000000, 1.000000000000000000 ) ) ;
#207 = DIRECTION ( 'NONE',  ( -0.000000000000000000, -0.000000000000000000, -1.000000000000000000 ) ) ;
#208 = FACE_OUTER_BOUND ( 'NONE', #252, .T. ) ;
#209 = CARTESIAN_POINT ( 'NONE',  ( -2.600000000000000089, 0.000000000000000000, 253.0000000000000000 ) ) ;
#210 = CARTESIAN_POINT ( 'NONE',  ( 0.000000000000000000, 0.000000000000000000, 3.000000000000000000 ) ) ;
#211 = APPROVAL_STATUS ( 'not_yet_approved' ) ;
#212 = CC_DESIGN_PERSON_AND_ORGANIZATION_ASSIGNMENT ( #196, #75, ( #163 ) ) ;
#213 = VERTEX_POINT ( 'NONE', #33 ) ;
#214 = ORIENTED_EDGE ( 'NONE', *, *, #142, .F. ) ;
#215 = APPROVAL_ROLE ( '' ) ;
#216 = DATE_AND_TIME ( #223, #115 ) ;
#217 = DATE_AND_TIME ( #246, #15 ) ;
#218 = DIRECTION ( 'NONE',  ( 0.000000000000000000, 0.000000000000000000, 1.000000000000000000 ) ) ;
#219 =( GEOMETRIC_REPRESENTATION_CONTEXT ( 3 ) GLOBAL_UNCERTAINTY_ASSIGNED_CONTEXT ( ( #89 ) ) GLOBAL_UNIT_ASSIGNED_CONTEXT ( ( #184, #278, #116 ) ) REPRESENTATION_CONTEXT ( 'NONE', 'WORKASPACE' ) );
#220 = PERSON_AND_ORGANIZATION ( #140, #53 ) ;
#221 = PRODUCT ( '2f88', '2f88', '', ( #12 ) ) ;
#222 = DIRECTION ( 'NONE',  ( 1.000000000000000000, 0.000000000000000000, 0.000000000000000000 ) ) ;
#223 = CALENDAR_DATE ( 2022, 7, 7 ) ;
#224 = PRODUCT_DEFINITION ( 'NEZNÁMÝ', '', #163, #160 ) ;
#225 = DIRECTION ( 'NONE',  ( 1.000000000000000000, 0.000000000000000000, 0.000000000000000000 ) ) ;
#226 = ORIENTED_EDGE ( 'NONE', *, *, #85, .T. ) ;
#227 = APPLICATION_CONTEXT ( 'configuration controlled 3d designs of mechanical parts and assemblies' ) ;
#228 = CARTESIAN_POINT ( 'NONE',  ( 0.000000000000000000, 0.000000000000000000, 3.200000000000008171 ) ) ;
#229 = CARTESIAN_POINT ( 'NONE',  ( 0.000000000000000000, 0.000000000000000000, 253.0000000000000000 ) ) ;
#230 = CARTESIAN_POINT ( 'NONE',  ( -2.600000000000000089, 0.000000000000000000, 253.0000000000000000 ) ) ;
#231 = ADVANCED_FACE ( 'NONE', ( #275 ), #158, .T. ) ;
#232 = DIRECTION ( 'NONE',  ( 0.000000000000000000, 0.000000000000000000, 1.000000000000000000 ) ) ;
#233 = AXIS2_PLACEMENT_3D ( 'NONE', #257, #58, #80 ) ;
#234 = DIRECTION ( 'NONE',  ( 1.000000000000000000, 0.000000000000000000, 0.000000000000000000 ) ) ;
#235 = ORIENTED_EDGE ( 'NONE', *, *, #274, .T. ) ;
#236 = APPLICATION_PROTOCOL_DEFINITION ( 'international standard', 'config_control_design', 1994, #227 ) ;
#237 = SECURITY_CLASSIFICATION ( '', '', #96 ) ;
#238 = CC_DESIGN_DATE_AND_TIME_ASSIGNMENT ( #198, #47, ( #237 ) ) ;
#239 = EDGE_CURVE ( 'NONE', #241, #165, #287, .T. ) ;
#240 = EDGE_LOOP ( 'NONE', ( #305, #191 ) ) ;
#241 = VERTEX_POINT ( 'NONE', #230 ) ;
#242 = COORDINATED_UNIVERSAL_TIME_OFFSET ( 1, 0, .AHEAD. ) ;
#243 = EDGE_CURVE ( 'NONE', #213, #180, #10, .T. ) ;
#244 = APPROVAL_DATE_TIME ( #289, #127 ) ;
#245 = CIRCLE ( 'NONE', #38, 5.000000000000000000 ) ;
#246 = CALENDAR_DATE ( 2022, 7, 7 ) ;
#247 = DIRECTION ( 'NONE',  ( 0.000000000000000000, 0.000000000000000000, 1.000000000000000000 ) ) ;
#248 = PERSON_AND_ORGANIZATION ( #140, #53 ) ;
#249 = FACE_BOUND ( 'NONE', #202, .T. ) ;
#250 = EDGE_LOOP ( 'NONE', ( #30, #43, #19, #107 ) ) ;
#251 = DIRECTION ( 'NONE',  ( 1.224646799147353207E-16, 1.000000000000000000, -0.000000000000000000 ) ) ;
#252 = EDGE_LOOP ( 'NONE', ( #119, #45 ) ) ;
#253 = DIRECTION ( 'NONE',  ( -1.000000000000000000, 0.000000000000000000, 0.000000000000000000 ) ) ;
#254 = AXIS2_PLACEMENT_3D ( 'NONE', #73, #103, #197 ) ;
#255 = EDGE_CURVE ( 'NONE', #132, #272, #92, .T. ) ;
#256 = DIRECTION ( 'NONE',  ( 0.000000000000000000, 0.000000000000000000, 1.000000000000000000 ) ) ;
#257 = CARTESIAN_POINT ( 'NONE',  ( 0.000000000000000000, 0.000000000000000000, 3.200000000000008171 ) ) ;
#258 = DIRECTION ( 'NONE',  ( 1.000000000000000000, 0.000000000000000000, -0.000000000000000000 ) ) ;
#259 = AXIS2_PLACEMENT_3D ( 'NONE', #298, #113, #280 ) ;
#260 = ORIENTED_EDGE ( 'NONE', *, *, #18, .F. ) ;
#261 = VECTOR ( 'NONE', #83, 1000.000000000000000 ) ;
#262 = EDGE_LOOP ( 'NONE', ( #214, #283, #205, #226 ) ) ;
#263 = VECTOR ( 'NONE', #267, 1000.000000000000000 ) ;
#264 = VECTOR ( 'NONE', #174, 1000.000000000000000 ) ;
#265 = FACE_OUTER_BOUND ( 'NONE', #67, .T. ) ;
#266 = APPROVAL_ROLE ( '' ) ;
#267 = DIRECTION ( 'NONE',  ( -0.000000000000000000, -0.000000000000000000, -1.000000000000000000 ) ) ;
#268 = TOROIDAL_SURFACE ( 'NONE', #190, 2.799999999999999822, 0.2000000000000000111 ) ;
#269 = CALENDAR_DATE ( 2022, 7, 7 ) ;
#270 = CARTESIAN_POINT ( 'NONE',  ( 5.000000000000000000, 6.123233995736766282E-16, 0.000000000000000000 ) ) ;
#271 = CARTESIAN_POINT ( 'NONE',  ( -5.000000000000000000, 0.000000000000000000, 0.000000000000000000 ) ) ;
#272 = VERTEX_POINT ( 'NONE', #110 ) ;
#273 = DIRECTION ( 'NONE',  ( 0.000000000000000000, -1.000000000000000000, 0.000000000000000000 ) ) ;
#274 = EDGE_CURVE ( 'NONE', #141, #180, #294, .T. ) ;
#275 = FACE_OUTER_BOUND ( 'NONE', #304, .T. ) ;
#276 = CC_DESIGN_SECURITY_CLASSIFICATION ( #237, ( #163 ) ) ;
#277 = CARTESIAN_POINT ( 'NONE',  ( 0.000000000000000000, 0.000000000000000000, 3.000000000000000000 ) ) ;
#278 =( NAMED_UNIT ( * ) PLANE_ANGLE_UNIT ( ) SI_UNIT ( $, .RADIAN. ) );
#279 = CC_DESIGN_DATE_AND_TIME_ASSIGNMENT ( #285, #167, ( #224 ) ) ;
#280 = DIRECTION ( 'NONE',  ( 1.000000000000000000, 0.000000000000000000, 0.000000000000000000 ) ) ;
#281 = CIRCLE ( 'NONE', #63, 0.2000000000000000944 ) ;
#282 = ORIENTED_EDGE ( 'NONE', *, *, #85, .F. ) ;
#283 = ORIENTED_EDGE ( 'NONE', *, *, #239, .F. ) ;
#284 = EDGE_CURVE ( 'NONE', #241, #272, #301, .T. ) ;
#285 = DATE_AND_TIME ( #5, #139 ) ;
#286 = COORDINATED_UNIVERSAL_TIME_OFFSET ( 1, 0, .AHEAD. ) ;
#287 = CIRCLE ( 'NONE', #162, 2.600000000000000089 ) ;
#288 = LINE ( 'NONE', #78, #264 ) ;
#289 = DATE_AND_TIME ( #129, #302 ) ;
#290 = DIRECTION ( 'NONE',  ( 1.000000000000000000, 0.000000000000000000, 0.000000000000000000 ) ) ;
#291 = PERSON_AND_ORGANIZATION_ROLE ( 'creator' ) ;
#292 = CYLINDRICAL_SURFACE ( 'NONE', #161, 2.600000000000000089 ) ;
#293 = FACE_OUTER_BOUND ( 'NONE', #37, .T. ) ;
#294 = CIRCLE ( 'NONE', #259, 5.000000000000000000 ) ;
#295 = ORIENTED_EDGE ( 'NONE', *, *, #109, .T. ) ;
#296 = CYLINDRICAL_SURFACE ( 'NONE', #76, 2.600000000000000089 ) ;
#297 = EDGE_LOOP ( 'NONE', ( #282, #11, #175, #166 ) ) ;
#298 = CARTESIAN_POINT ( 'NONE',  ( 0.000000000000000000, 0.000000000000000000, 0.000000000000000000 ) ) ;
#299 = DIRECTION ( 'NONE',  ( 1.000000000000000000, 0.000000000000000000, 0.000000000000000000 ) ) ;
#300 = FACE_OUTER_BOUND ( 'NONE', #105, .T. ) ;
#301 = LINE ( 'NONE', #209, #261 ) ;
#302 = LOCAL_TIME ( 12, 17, 36.00000000000000000, #98 ) ;
#303 = EDGE_CURVE ( 'NONE', #132, #94, #22, .T. ) ;
#304 = EDGE_LOOP ( 'NONE', ( #55, #260, #295, #235 ) ) ;
#305 = ORIENTED_EDGE ( 'NONE', *, *, #239, .T. ) ;
#306 = CIRCLE ( 'NONE', #147, 2.600000000000000089 ) ;
#307 = AXIS2_PLACEMENT_3D ( 'NONE', #182, #273, #88 ) ;
ENDSEC;
END-ISO-10303-21;
