ISO-10303-21;
HEADER;
FILE_DESCRIPTION (( 'STEP AP203' ),
    '1' );
FILE_NAME ('21e6.STEP',
    '2022-07-07T10:13:47',
    ( '' ),
    ( '' ),
    'SwSTEP 2.0',
    'SolidWorks 2019',
    '' );
FILE_SCHEMA (( 'CONFIG_CONTROL_DESIGN' ));
ENDSEC;

DATA;
#1 = EDGE_LOOP ( 'NONE', ( #94, #280, #106, #307 ) ) ;
#2 = VERTEX_POINT ( 'NONE', #213 ) ;
#3 = EDGE_CURVE ( 'NONE', #119, #240, #236, .T. ) ;
#4 = DIRECTION ( 'NONE',  ( 0.000000000000000000, 0.000000000000000000, 1.000000000000000000 ) ) ;
#5 = DIRECTION ( 'NONE',  ( 0.000000000000000000, -1.000000000000000000, 0.000000000000000000 ) ) ;
#6 = AXIS2_PLACEMENT_3D ( 'NONE', #222, #16, #228 ) ;
#7 = AXIS2_PLACEMENT_3D ( 'NONE', #80, #198, #244 ) ;
#8 = DIRECTION ( 'NONE',  ( 1.000000000000000000, 0.000000000000000000, 0.000000000000000000 ) ) ;
#9 = VERTEX_POINT ( 'NONE', #292 ) ;
#10 = DIRECTION ( 'NONE',  ( 0.000000000000000000, 0.000000000000000000, 1.000000000000000000 ) ) ;
#11 = VERTEX_POINT ( 'NONE', #56 ) ;
#12 = ADVANCED_FACE ( 'NONE', ( #175 ), #24, .F. ) ;
#13 = DIRECTION ( 'NONE',  ( 1.000000000000000000, 0.000000000000000000, 0.000000000000000000 ) ) ;
#14 = FACE_OUTER_BOUND ( 'NONE', #166, .T. ) ;
#15 = DIRECTION ( 'NONE',  ( -0.000000000000000000, -0.000000000000000000, -1.000000000000000000 ) ) ;
#16 = DIRECTION ( 'NONE',  ( 0.000000000000000000, 0.000000000000000000, 1.000000000000000000 ) ) ;
#17 = CARTESIAN_POINT ( 'NONE',  ( 0.000000000000000000, 0.000000000000000000, 5.200000000000009948 ) ) ;
#18 = PERSON_AND_ORGANIZATION_ROLE ( 'classification_officer' ) ;
#19 = AXIS2_PLACEMENT_3D ( 'NONE', #274, #15, #291 ) ;
#20 = COORDINATED_UNIVERSAL_TIME_OFFSET ( 1, 0, .AHEAD. ) ;
#21 = CARTESIAN_POINT ( 'NONE',  ( 0.000000000000000000, 0.000000000000000000, 0.000000000000000000 ) ) ;
#22 = EDGE_LOOP ( 'NONE', ( #245, #185, #51, #154 ) ) ;
#23 = PERSON_AND_ORGANIZATION ( #52, #269 ) ;
#24 = TOROIDAL_SURFACE ( 'NONE', #49, 3.200000000000000622, 0.2000000000000000111 ) ;
#25 = VECTOR ( 'NONE', #202, 1000.000000000000000 ) ;
#26 = UNCERTAINTY_MEASURE_WITH_UNIT (LENGTH_MEASURE( 1.000000000000000082E-05 ), #172, 'distance_accuracy_value', 'NONE');
#27 = ORIENTED_EDGE ( 'NONE', *, *, #210, .T. ) ;
#28 = EDGE_CURVE ( 'NONE', #295, #194, #122, .T. ) ;
#29 = LOCAL_TIME ( 12, 13, 47.00000000000000000, #112 ) ;
#30 = ORIENTED_EDGE ( 'NONE', *, *, #140, .F. ) ;
#31 = FACE_OUTER_BOUND ( 'NONE', #121, .T. ) ;
#32 = DIRECTION ( 'NONE',  ( -0.000000000000000000, -0.000000000000000000, -1.000000000000000000 ) ) ;
#33 = CARTESIAN_POINT ( 'NONE',  ( 0.000000000000000000, 0.000000000000000000, 5.000000000000000000 ) ) ;
#34 = AXIS2_PLACEMENT_3D ( 'NONE', #110, #32, #146 ) ;
#35 = DIRECTION ( 'NONE',  ( -1.000000000000000000, 1.224646799147353207E-16, 0.000000000000000000 ) ) ;
#36 = DIRECTION ( 'NONE',  ( 0.000000000000000000, 0.000000000000000000, 1.000000000000000000 ) ) ;
#37 = DIRECTION ( 'NONE',  ( 0.000000000000000000, 0.000000000000000000, 1.000000000000000000 ) ) ;
#38 = VERTEX_POINT ( 'NONE', #168 ) ;
#39 = DIRECTION ( 'NONE',  ( 1.224646799147353207E-16, 1.000000000000000000, -0.000000000000000000 ) ) ;
#40 = CARTESIAN_POINT ( 'NONE',  ( 0.000000000000000000, 0.000000000000000000, 0.000000000000000000 ) ) ;
#41 = AXIS2_PLACEMENT_3D ( 'NONE', #77, #171, #59 ) ;
#42 = EDGE_CURVE ( 'NONE', #194, #74, #192, .T. ) ;
#43 = CYLINDRICAL_SURFACE ( 'NONE', #232, 3.000000000000000444 ) ;
#44 = DATE_TIME_ROLE ( 'creation_date' ) ;
#45 = DIRECTION ( 'NONE',  ( 0.000000000000000000, 0.000000000000000000, 1.000000000000000000 ) ) ;
#46 = APPLICATION_CONTEXT ( 'configuration controlled 3d designs of mechanical parts and assemblies' ) ;
#47 = PERSON_AND_ORGANIZATION ( #52, #269 ) ;
#48 = APPROVAL_ROLE ( '' ) ;
#49 = AXIS2_PLACEMENT_3D ( 'NONE', #148, #124, #100 ) ;
#50 = CC_DESIGN_PERSON_AND_ORGANIZATION_ASSIGNMENT ( #23, #160, ( #101 ) ) ;
#51 = ORIENTED_EDGE ( 'NONE', *, *, #42, .T. ) ;
#52 = PERSON ( 'NEURÈENÝ', 'NEURÈENÝ', 'NEURÈENÝ', ('NEURÈENÝ'), ('NEURÈENÝ'), ('NEURÈENÝ') ) ;
#53 = EDGE_LOOP ( 'NONE', ( #99, #70, #191, #165 ) ) ;
#54 = ADVANCED_FACE ( 'NONE', ( #14 ), #55, .T. ) ;
#55 = PLANE ( 'NONE',  #237 ) ;
#56 = CARTESIAN_POINT ( 'NONE',  ( -3.200000000000000622, 3.918869757271530953E-16, 5.000000000000005329 ) ) ;
#57 = CARTESIAN_POINT ( 'NONE',  ( 0.000000000000000000, 0.000000000000000000, 165.0000000000000000 ) ) ;
#58 = APPLICATION_CONTEXT ( 'configuration controlled 3d designs of mechanical parts and assemblies' ) ;
#59 = DIRECTION ( 'NONE',  ( 1.000000000000000000, 0.000000000000000000, 0.000000000000000000 ) ) ;
#60 = CIRCLE ( 'NONE', #188, 3.200000000000000622 ) ;
#61 = DIRECTION ( 'NONE',  ( 1.000000000000000000, 0.000000000000000000, 0.000000000000000000 ) ) ;
#62 = ORIENTED_EDGE ( 'NONE', *, *, #144, .F. ) ;
#63 = CARTESIAN_POINT ( 'NONE',  ( 0.000000000000000000, 0.000000000000000000, 5.000000000000000000 ) ) ;
#64 = CARTESIAN_POINT ( 'NONE',  ( 3.200000000000000622, 0.000000000000000000, 5.200000000000009948 ) ) ;
#65 = DIRECTION ( 'NONE',  ( -0.000000000000000000, -0.000000000000000000, -1.000000000000000000 ) ) ;
#66 = APPROVAL_DATE_TIME ( #258, #262 ) ;
#67 = SECURITY_CLASSIFICATION_LEVEL ( 'unclassified' ) ;
#68 = CIRCLE ( 'NONE', #247, 6.000000000000000888 ) ;
#69 = CALENDAR_DATE ( 2022, 7, 7 ) ;
#70 = ORIENTED_EDGE ( 'NONE', *, *, #257, .F. ) ;
#71 = ORIENTED_EDGE ( 'NONE', *, *, #300, .F. ) ;
#72 = VECTOR ( 'NONE', #76, 1000.000000000000000 ) ;
#73 = EDGE_LOOP ( 'NONE', ( #211, #71 ) ) ;
#74 = VERTEX_POINT ( 'NONE', #145 ) ;
#75 = DIRECTION ( 'NONE',  ( 1.000000000000000000, 0.000000000000000000, -0.000000000000000000 ) ) ;
#76 = DIRECTION ( 'NONE',  ( -0.000000000000000000, -0.000000000000000000, -1.000000000000000000 ) ) ;
#77 = CARTESIAN_POINT ( 'NONE',  ( 0.000000000000000000, 0.000000000000000000, 165.0000000000000000 ) ) ;
#78 = DIRECTION ( 'NONE',  ( 1.000000000000000000, 0.000000000000000000, 0.000000000000000000 ) ) ;
#79 = APPROVAL_PERSON_ORGANIZATION ( #159, #150, #259 ) ;
#80 = CARTESIAN_POINT ( 'NONE',  ( 0.000000000000000000, 0.000000000000000000, 5.200000000000009948 ) ) ;
#81 = ADVANCED_FACE ( 'NONE', ( #243, #31 ), #103, .T. ) ;
#82 = ORIENTED_EDGE ( 'NONE', *, *, #257, .T. ) ;
#83 = CARTESIAN_POINT ( 'NONE',  ( -6.000000000000000888, 0.000000000000000000, 5.000000000000000000 ) ) ;
#84 = CYLINDRICAL_SURFACE ( 'NONE', #19, 6.000000000000000888 ) ;
#85 = AXIS2_PLACEMENT_3D ( 'NONE', #287, #36, #75 ) ;
#86 = COORDINATED_UNIVERSAL_TIME_OFFSET ( 1, 0, .AHEAD. ) ;
#87 = APPROVAL_PERSON_ORGANIZATION ( #88, #262, #48 ) ;
#88 = PERSON_AND_ORGANIZATION ( #52, #269 ) ;
#89 = PERSON_AND_ORGANIZATION_ROLE ( 'creator' ) ;
#90 = CIRCLE ( 'NONE', #275, 3.000000000000000444 ) ;
#91 = APPROVAL_STATUS ( 'not_yet_approved' ) ;
#92 = EDGE_CURVE ( 'NONE', #38, #209, #169, .T. ) ;
#93 = CIRCLE ( 'NONE', #179, 0.2000000000000000944 ) ;
#94 = ORIENTED_EDGE ( 'NONE', *, *, #3, .F. ) ;
#95 = APPROVAL_DATE_TIME ( #305, #150 ) ;
#96 = EDGE_LOOP ( 'NONE', ( #30, #117, #97, #238 ) ) ;
#97 = ORIENTED_EDGE ( 'NONE', *, *, #217, .T. ) ;
#98 = CIRCLE ( 'NONE', #152, 3.000000000000000444 ) ;
#99 = ORIENTED_EDGE ( 'NONE', *, *, #28, .F. ) ;
#100 = DIRECTION ( 'NONE',  ( 1.000000000000000000, 0.000000000000000000, 0.000000000000000000 ) ) ;
#101 = PRODUCT_DEFINITION ( 'NEZNÁMÝ', '', #120, #219 ) ;
#102 = VECTOR ( 'NONE', #105, 1000.000000000000000 ) ;
#103 = PLANE ( 'NONE',  #85 ) ;
#104 = DIRECTION ( 'NONE',  ( 1.000000000000000000, 0.000000000000000000, 0.000000000000000000 ) ) ;
#105 = DIRECTION ( 'NONE',  ( -0.000000000000000000, -0.000000000000000000, -1.000000000000000000 ) ) ;
#106 = ORIENTED_EDGE ( 'NONE', *, *, #300, .T. ) ;
#107 = DIRECTION ( 'NONE',  ( 1.000000000000000000, 0.000000000000000000, -0.000000000000000000 ) ) ;
#108 = EDGE_LOOP ( 'NONE', ( #264, #272, #190, #223 ) ) ;
#109 = AXIS2_PLACEMENT_3D ( 'NONE', #21, #45, #113 ) ;
#110 = CARTESIAN_POINT ( 'NONE',  ( 0.000000000000000000, 0.000000000000000000, 5.000000000000000000 ) ) ;
#111 = FACE_OUTER_BOUND ( 'NONE', #108, .T. ) ;
#112 = COORDINATED_UNIVERSAL_TIME_OFFSET ( 1, 0, .AHEAD. ) ;
#113 = DIRECTION ( 'NONE',  ( 1.000000000000000000, 0.000000000000000000, 0.000000000000000000 ) ) ;
#114 = CC_DESIGN_APPROVAL ( #150, ( #183 ) ) ;
#115 = APPROVAL_DATE_TIME ( #181, #234 ) ;
#116 = APPROVAL_ROLE ( '' ) ;
#117 = ORIENTED_EDGE ( 'NONE', *, *, #28, .T. ) ;
#118 = VECTOR ( 'NONE', #215, 1000.000000000000000 ) ;
#119 = VERTEX_POINT ( 'NONE', #196 ) ;
#120 = PRODUCT_DEFINITION_FORMATION_WITH_SPECIFIED_SOURCE ( 'LIBOVOLNÝ', '', #278, .NOT_KNOWN. ) ;
#121 = EDGE_LOOP ( 'NONE', ( #27, #173 ) ) ;
#122 = LINE ( 'NONE', #128, #118 ) ;
#123 = FACE_OUTER_BOUND ( 'NONE', #96, .T. ) ;
#124 = DIRECTION ( 'NONE',  ( 0.000000000000000000, 0.000000000000000000, 1.000000000000000000 ) ) ;
#125 = AXIS2_PLACEMENT_3D ( 'NONE', #17, #225, #104 ) ;
#126 = CARTESIAN_POINT ( 'NONE',  ( 3.000000000000000444, 3.673940397442060361E-16, 165.0000000000000000 ) ) ;
#127 = DIRECTION ( 'NONE',  ( 1.000000000000000000, 0.000000000000000000, 0.000000000000000000 ) ) ;
#128 = CARTESIAN_POINT ( 'NONE',  ( 3.000000000000000444, 3.673940397442060361E-16, 165.0000000000000000 ) ) ;
#129 =( NAMED_UNIT ( * ) PLANE_ANGLE_UNIT ( ) SI_UNIT ( $, .RADIAN. ) );
#130 = PLANE ( 'NONE',  #260 ) ;
#131 = CARTESIAN_POINT ( 'NONE',  ( 0.000000000000000000, 0.000000000000000000, 165.0000000000000000 ) ) ;
#132 = MECHANICAL_CONTEXT ( 'NONE', #46, 'mechanical' ) ;
#133 = MANIFOLD_SOLID_BREP ( 'Zaoblit1', #226 ) ;
#134 = COORDINATED_UNIVERSAL_TIME_OFFSET ( 1, 0, .AHEAD. ) ;
#135 = CC_DESIGN_APPROVAL ( #234, ( #120 ) ) ;
#136 = COORDINATED_UNIVERSAL_TIME_OFFSET ( 1, 0, .AHEAD. ) ;
#137 = CC_DESIGN_DATE_AND_TIME_ASSIGNMENT ( #231, #304, ( #183 ) ) ;
#138 = CALENDAR_DATE ( 2022, 7, 7 ) ;
#139 = CALENDAR_DATE ( 2022, 7, 7 ) ;
#140 = EDGE_CURVE ( 'NONE', #295, #38, #167, .T. ) ;
#141 = CIRCLE ( 'NONE', #6, 6.000000000000000888 ) ;
#142 = ORIENTED_EDGE ( 'NONE', *, *, #250, .T. ) ;
#143 = AXIS2_PLACEMENT_3D ( 'NONE', #57, #65, #178 ) ;
#144 = EDGE_CURVE ( 'NONE', #209, #194, #90, .T. ) ;
#145 = CARTESIAN_POINT ( 'NONE',  ( 3.200000000000000622, 0.000000000000000000, 5.000000000000005329 ) ) ;
#146 = DIRECTION ( 'NONE',  ( -1.000000000000000000, 0.000000000000000000, 0.000000000000000000 ) ) ;
#147 = EDGE_CURVE ( 'NONE', #2, #9, #141, .T. ) ;
#148 = CARTESIAN_POINT ( 'NONE',  ( 0.000000000000000000, 0.000000000000000000, 5.200000000000009948 ) ) ;
#149 = CARTESIAN_POINT ( 'NONE',  ( 0.000000000000000000, 0.000000000000000000, 5.000000000000000000 ) ) ;
#150 = APPROVAL ( #91, 'NEURÈENÝ' ) ;
#151 = CARTESIAN_POINT ( 'NONE',  ( 0.000000000000000000, 0.000000000000000000, 5.200000000000009948 ) ) ;
#152 = AXIS2_PLACEMENT_3D ( 'NONE', #216, #37, #155 ) ;
#153 = DIRECTION ( 'NONE',  ( 1.000000000000000000, 0.000000000000000000, 0.000000000000000000 ) ) ;
#154 = ORIENTED_EDGE ( 'NONE', *, *, #189, .F. ) ;
#155 = DIRECTION ( 'NONE',  ( 1.000000000000000000, 0.000000000000000000, 0.000000000000000000 ) ) ;
#156 = FACE_OUTER_BOUND ( 'NONE', #73, .T. ) ;
#157 = FACE_OUTER_BOUND ( 'NONE', #53, .T. ) ;
#158 = AXIS2_PLACEMENT_3D ( 'NONE', #33, #267, #78 ) ;
#159 = PERSON_AND_ORGANIZATION ( #52, #269 ) ;
#160 = PERSON_AND_ORGANIZATION_ROLE ( 'creator' ) ;
#161 =( GEOMETRIC_REPRESENTATION_CONTEXT ( 3 ) GLOBAL_UNCERTAINTY_ASSIGNED_CONTEXT ( ( #26 ) ) GLOBAL_UNIT_ASSIGNED_CONTEXT ( ( #172, #129, #233 ) ) REPRESENTATION_CONTEXT ( 'NONE', 'WORKASPACE' ) );
#162 = DATE_AND_TIME ( #138, #241 ) ;
#163 = ORIENTED_EDGE ( 'NONE', *, *, #42, .F. ) ;
#164 = CC_DESIGN_PERSON_AND_ORGANIZATION_ASSIGNMENT ( #208, #277, ( #278 ) ) ;
#165 = ORIENTED_EDGE ( 'NONE', *, *, #144, .T. ) ;
#166 = EDGE_LOOP ( 'NONE', ( #82, #197 ) ) ;
#167 = CIRCLE ( 'NONE', #41, 3.000000000000000444 ) ;
#168 = CARTESIAN_POINT ( 'NONE',  ( -3.000000000000000444, 0.000000000000000000, 165.0000000000000000 ) ) ;
#169 = LINE ( 'NONE', #220, #102 ) ;
#170 = CARTESIAN_POINT ( 'NONE',  ( 3.000000000000000444, 3.673940397442060361E-16, 5.200000000000009948 ) ) ;
#171 = DIRECTION ( 'NONE',  ( 0.000000000000000000, 0.000000000000000000, 1.000000000000000000 ) ) ;
#172 =( LENGTH_UNIT ( ) NAMED_UNIT ( * ) SI_UNIT ( .MILLI., .METRE. ) );
#173 = ORIENTED_EDGE ( 'NONE', *, *, #3, .T. ) ;
#174 = DIRECTION ( 'NONE',  ( -0.000000000000000000, -0.000000000000000000, -1.000000000000000000 ) ) ;
#175 = FACE_OUTER_BOUND ( 'NONE', #22, .T. ) ;
#176 = FACE_OUTER_BOUND ( 'NONE', #282, .T. ) ;
#177 = CC_DESIGN_PERSON_AND_ORGANIZATION_ASSIGNMENT ( #47, #89, ( #120 ) ) ;
#178 = DIRECTION ( 'NONE',  ( -1.000000000000000000, 0.000000000000000000, 0.000000000000000000 ) ) ;
#179 = AXIS2_PLACEMENT_3D ( 'NONE', #252, #39, #35 ) ;
#180 = ADVANCED_FACE ( 'NONE', ( #156 ), #130, .F. ) ;
#181 = DATE_AND_TIME ( #182, #294 ) ;
#182 = CALENDAR_DATE ( 2022, 7, 7 ) ;
#183 = SECURITY_CLASSIFICATION ( '', '', #67 ) ;
#184 = APPROVAL_STATUS ( 'not_yet_approved' ) ;
#185 = ORIENTED_EDGE ( 'NONE', *, *, #217, .F. ) ;
#186 = SHAPE_DEFINITION_REPRESENTATION ( #306, #283 ) ;
#187 = ORIENTED_EDGE ( 'NONE', *, *, #288, .T. ) ;
#188 = AXIS2_PLACEMENT_3D ( 'NONE', #63, #296, #8 ) ;
#189 = EDGE_CURVE ( 'NONE', #11, #74, #204, .T. ) ;
#190 = ORIENTED_EDGE ( 'NONE', *, *, #284, .T. ) ;
#191 = ORIENTED_EDGE ( 'NONE', *, *, #92, .T. ) ;
#192 = CIRCLE ( 'NONE', #214, 0.1999999999999996503 ) ;
#193 = LOCAL_TIME ( 12, 13, 47.00000000000000000, #86 ) ;
#194 = VERTEX_POINT ( 'NONE', #170 ) ;
#195 = LINE ( 'NONE', #83, #72 ) ;
#196 = CARTESIAN_POINT ( 'NONE',  ( 6.000000000000000888, 7.347880794884120722E-16, 5.000000000000000000 ) ) ;
#197 = ORIENTED_EDGE ( 'NONE', *, *, #140, .T. ) ;
#198 = DIRECTION ( 'NONE',  ( 0.000000000000000000, 0.000000000000000000, 1.000000000000000000 ) ) ;
#199 = ORIENTED_EDGE ( 'NONE', *, *, #250, .F. ) ;
#200 = CARTESIAN_POINT ( 'NONE',  ( -6.000000000000000888, 0.000000000000000000, 5.000000000000000000 ) ) ;
#201 = EDGE_CURVE ( 'NONE', #119, #9, #268, .T. ) ;
#202 = DIRECTION ( 'NONE',  ( -0.000000000000000000, -0.000000000000000000, -1.000000000000000000 ) ) ;
#203 = ADVANCED_FACE ( 'NONE', ( #157 ), #229, .T. ) ;
#204 = CIRCLE ( 'NONE', #254, 3.200000000000000622 ) ;
#205 = TOROIDAL_SURFACE ( 'NONE', #125, 3.200000000000000622, 0.2000000000000000111 ) ;
#206 = APPLICATION_PROTOCOL_DEFINITION ( 'international standard', 'config_control_design', 1994, #46 ) ;
#207 = CALENDAR_DATE ( 2022, 7, 7 ) ;
#208 = PERSON_AND_ORGANIZATION ( #52, #269 ) ;
#209 = VERTEX_POINT ( 'NONE', #297 ) ;
#210 = EDGE_CURVE ( 'NONE', #240, #119, #281, .T. ) ;
#211 = ORIENTED_EDGE ( 'NONE', *, *, #147, .F. ) ;
#212 = CC_DESIGN_APPROVAL ( #262, ( #101 ) ) ;
#213 = CARTESIAN_POINT ( 'NONE',  ( -6.000000000000000888, 0.000000000000000000, 0.000000000000000000 ) ) ;
#214 = AXIS2_PLACEMENT_3D ( 'NONE', #64, #5, #265 ) ;
#215 = DIRECTION ( 'NONE',  ( -0.000000000000000000, -0.000000000000000000, -1.000000000000000000 ) ) ;
#216 = CARTESIAN_POINT ( 'NONE',  ( 0.000000000000000000, 0.000000000000000000, 165.0000000000000000 ) ) ;
#217 = EDGE_CURVE ( 'NONE', #194, #209, #227, .T. ) ;
#218 = AXIS2_PLACEMENT_3D ( 'NONE', #149, #255, #153 ) ;
#219 = DESIGN_CONTEXT ( 'detailed design', #58, 'design' ) ;
#220 = CARTESIAN_POINT ( 'NONE',  ( -3.000000000000000444, 0.000000000000000000, 165.0000000000000000 ) ) ;
#221 = CARTESIAN_POINT ( 'NONE',  ( 0.000000000000000000, 0.000000000000000000, 0.000000000000000000 ) ) ;
#222 = CARTESIAN_POINT ( 'NONE',  ( 0.000000000000000000, 0.000000000000000000, 0.000000000000000000 ) ) ;
#223 = ORIENTED_EDGE ( 'NONE', *, *, #147, .T. ) ;
#224 = ADVANCED_FACE ( 'NONE', ( #246 ), #293, .T. ) ;
#225 = DIRECTION ( 'NONE',  ( 0.000000000000000000, 0.000000000000000000, 1.000000000000000000 ) ) ;
#226 = CLOSED_SHELL ( 'NONE', ( #263, #248, #224, #276, #81, #180, #203, #54, #12 ) ) ;
#227 = CIRCLE ( 'NONE', #7, 3.000000000000000444 ) ;
#228 = DIRECTION ( 'NONE',  ( 1.000000000000000000, 0.000000000000000000, 0.000000000000000000 ) ) ;
#229 = CYLINDRICAL_SURFACE ( 'NONE', #143, 3.000000000000000444 ) ;
#230 = PERSON_AND_ORGANIZATION_ROLE ( 'design_supplier' ) ;
#231 = DATE_AND_TIME ( #207, #261 ) ;
#232 = AXIS2_PLACEMENT_3D ( 'NONE', #131, #174, #289 ) ;
#233 =( NAMED_UNIT ( * ) SI_UNIT ( $, .STERADIAN. ) SOLID_ANGLE_UNIT ( ) );
#234 = APPROVAL ( #303, 'NEURÈENÝ' ) ;
#235 = PERSON_AND_ORGANIZATION ( #52, #269 ) ;
#236 = CIRCLE ( 'NONE', #158, 6.000000000000000888 ) ;
#237 = AXIS2_PLACEMENT_3D ( 'NONE', #242, #4, #270 ) ;
#238 = ORIENTED_EDGE ( 'NONE', *, *, #92, .F. ) ;
#239 = PRODUCT_RELATED_PRODUCT_CATEGORY ( 'detail', '', ( #278 ) ) ;
#240 = VERTEX_POINT ( 'NONE', #200 ) ;
#241 = LOCAL_TIME ( 12, 13, 47.00000000000000000, #136 ) ;
#242 = CARTESIAN_POINT ( 'NONE',  ( 0.000000000000000000, 0.000000000000000000, 165.0000000000000000 ) ) ;
#243 = FACE_BOUND ( 'NONE', #290, .T. ) ;
#244 = DIRECTION ( 'NONE',  ( 1.000000000000000000, 0.000000000000000000, 0.000000000000000000 ) ) ;
#245 = ORIENTED_EDGE ( 'NONE', *, *, #288, .F. ) ;
#246 = FACE_OUTER_BOUND ( 'NONE', #1, .T. ) ;
#247 = AXIS2_PLACEMENT_3D ( 'NONE', #221, #10, #13 ) ;
#248 = ADVANCED_FACE ( 'NONE', ( #123 ), #43, .T. ) ;
#249 = DIRECTION ( 'NONE',  ( 0.000000000000000000, 0.000000000000000000, 1.000000000000000000 ) ) ;
#250 = EDGE_CURVE ( 'NONE', #74, #11, #60, .T. ) ;
#251 = ORIENTED_EDGE ( 'NONE', *, *, #189, .T. ) ;
#252 = CARTESIAN_POINT ( 'NONE',  ( -3.200000000000000622, 3.918869757271530953E-16, 5.200000000000009948 ) ) ;
#253 = DIRECTION ( 'NONE',  ( 0.000000000000000000, 0.000000000000000000, 1.000000000000000000 ) ) ;
#254 = AXIS2_PLACEMENT_3D ( 'NONE', #271, #273, #61 ) ;
#255 = DIRECTION ( 'NONE',  ( 0.000000000000000000, 0.000000000000000000, 1.000000000000000000 ) ) ;
#256 = APPROVAL_PERSON_ORGANIZATION ( #299, #234, #116 ) ;
#257 = EDGE_CURVE ( 'NONE', #38, #295, #98, .T. ) ;
#258 = DATE_AND_TIME ( #69, #193 ) ;
#259 = APPROVAL_ROLE ( '' ) ;
#260 = AXIS2_PLACEMENT_3D ( 'NONE', #40, #253, #107 ) ;
#261 = LOCAL_TIME ( 12, 13, 47.00000000000000000, #134 ) ;
#262 = APPROVAL ( #184, 'NEURÈENÝ' ) ;
#263 = ADVANCED_FACE ( 'NONE', ( #176 ), #205, .F. ) ;
#264 = ORIENTED_EDGE ( 'NONE', *, *, #201, .F. ) ;
#265 = DIRECTION ( 'NONE',  ( 0.000000000000000000, 0.000000000000000000, -1.000000000000000000 ) ) ;
#266 = CARTESIAN_POINT ( 'NONE',  ( 6.000000000000000888, 7.347880794884120722E-16, 5.000000000000000000 ) ) ;
#267 = DIRECTION ( 'NONE',  ( 0.000000000000000000, 0.000000000000000000, 1.000000000000000000 ) ) ;
#268 = LINE ( 'NONE', #266, #25 ) ;
#269 = ORGANIZATION ( 'NEURÈENÝ', 'NEURÈENÝ', '' ) ;
#270 = DIRECTION ( 'NONE',  ( 1.000000000000000000, 0.000000000000000000, -0.000000000000000000 ) ) ;
#271 = CARTESIAN_POINT ( 'NONE',  ( 0.000000000000000000, 0.000000000000000000, 5.000000000000000000 ) ) ;
#272 = ORIENTED_EDGE ( 'NONE', *, *, #210, .F. ) ;
#273 = DIRECTION ( 'NONE',  ( -0.000000000000000000, -0.000000000000000000, -1.000000000000000000 ) ) ;
#274 = CARTESIAN_POINT ( 'NONE',  ( 0.000000000000000000, 0.000000000000000000, 5.000000000000000000 ) ) ;
#275 = AXIS2_PLACEMENT_3D ( 'NONE', #151, #249, #127 ) ;
#276 = ADVANCED_FACE ( 'NONE', ( #111 ), #84, .T. ) ;
#277 = PERSON_AND_ORGANIZATION_ROLE ( 'design_owner' ) ;
#278 = PRODUCT ( '21e6', '21e6', '', ( #132 ) ) ;
#279 = PERSON_AND_ORGANIZATION ( #52, #269 ) ;
#280 = ORIENTED_EDGE ( 'NONE', *, *, #201, .T. ) ;
#281 = CIRCLE ( 'NONE', #218, 6.000000000000000888 ) ;
#282 = EDGE_LOOP ( 'NONE', ( #62, #187, #199, #163 ) ) ;
#283 = ADVANCED_BREP_SHAPE_REPRESENTATION ( '21e6', ( #133, #109 ), #161 ) ;
#284 = EDGE_CURVE ( 'NONE', #240, #2, #195, .T. ) ;
#285 = CC_DESIGN_DATE_AND_TIME_ASSIGNMENT ( #162, #44, ( #101 ) ) ;
#286 = CC_DESIGN_SECURITY_CLASSIFICATION ( #183, ( #120 ) ) ;
#287 = CARTESIAN_POINT ( 'NONE',  ( 0.000000000000000000, 0.000000000000000000, 5.000000000000000000 ) ) ;
#288 = EDGE_CURVE ( 'NONE', #209, #11, #93, .T. ) ;
#289 = DIRECTION ( 'NONE',  ( -1.000000000000000000, 0.000000000000000000, 0.000000000000000000 ) ) ;
#290 = EDGE_LOOP ( 'NONE', ( #142, #251 ) ) ;
#291 = DIRECTION ( 'NONE',  ( -1.000000000000000000, 0.000000000000000000, 0.000000000000000000 ) ) ;
#292 = CARTESIAN_POINT ( 'NONE',  ( 6.000000000000000888, 7.347880794884120722E-16, 0.000000000000000000 ) ) ;
#293 = CYLINDRICAL_SURFACE ( 'NONE', #34, 6.000000000000000888 ) ;
#294 = LOCAL_TIME ( 12, 13, 47.00000000000000000, #20 ) ;
#295 = VERTEX_POINT ( 'NONE', #126 ) ;
#296 = DIRECTION ( 'NONE',  ( -0.000000000000000000, -0.000000000000000000, -1.000000000000000000 ) ) ;
#297 = CARTESIAN_POINT ( 'NONE',  ( -3.000000000000000444, 0.000000000000000000, 5.200000000000009948 ) ) ;
#298 = CC_DESIGN_PERSON_AND_ORGANIZATION_ASSIGNMENT ( #235, #18, ( #183 ) ) ;
#299 = PERSON_AND_ORGANIZATION ( #52, #269 ) ;
#300 = EDGE_CURVE ( 'NONE', #9, #2, #68, .T. ) ;
#301 = APPLICATION_PROTOCOL_DEFINITION ( 'international standard', 'config_control_design', 1994, #58 ) ;
#302 = CC_DESIGN_PERSON_AND_ORGANIZATION_ASSIGNMENT ( #279, #230, ( #120 ) ) ;
#303 = APPROVAL_STATUS ( 'not_yet_approved' ) ;
#304 = DATE_TIME_ROLE ( 'classification_date' ) ;
#305 = DATE_AND_TIME ( #139, #29 ) ;
#306 = PRODUCT_DEFINITION_SHAPE ( 'NONE', 'NONE',  #101 ) ;
#307 = ORIENTED_EDGE ( 'NONE', *, *, #284, .F. ) ;
ENDSEC;
END-ISO-10303-21;
