ISO-10303-21;
HEADER;
FILE_DESCRIPTION (( 'STEP AP203' ),
    '1' );
FILE_NAME ('7acf.STEP',
    '2022-07-07T09:55:22',
    ( '' ),
    ( '' ),
    'SwSTEP 2.0',
    'SolidWorks 2019',
    '' );
FILE_SCHEMA (( 'CONFIG_CONTROL_DESIGN' ));
ENDSEC;

DATA;
#1 = CIRCLE ( 'NONE', #175, 5.000000000000000888 ) ;
#2 =( GEOMETRIC_REPRESENTATION_CONTEXT ( 3 ) GLOBAL_UNCERTAINTY_ASSIGNED_CONTEXT ( ( #21 ) ) GLOBAL_UNIT_ASSIGNED_CONTEXT ( ( #281, #276, #17 ) ) REPRESENTATION_CONTEXT ( 'NONE', 'WORKASPACE' ) );
#3 = EDGE_CURVE ( 'NONE', #269, #124, #212, .T. ) ;
#4 = EDGE_LOOP ( 'NONE', ( #231, #127 ) ) ;
#5 = APPROVAL_PERSON_ORGANIZATION ( #205, #284, #222 ) ;
#6 = DIRECTION ( 'NONE',  ( 1.000000000000000000, 0.000000000000000000, 0.000000000000000000 ) ) ;
#7 = ORIENTED_EDGE ( 'NONE', *, *, #232, .T. ) ;
#8 = ORIENTED_EDGE ( 'NONE', *, *, #32, .T. ) ;
#9 = CARTESIAN_POINT ( 'NONE',  ( 8.000000000000000000, 9.797174393178825657E-16, 5.000000000000000000 ) ) ;
#10 = AXIS2_PLACEMENT_3D ( 'NONE', #121, #206, #92 ) ;
#11 = DATE_AND_TIME ( #22, #182 ) ;
#12 = COORDINATED_UNIVERSAL_TIME_OFFSET ( 1, 0, .AHEAD. ) ;
#13 = COORDINATED_UNIVERSAL_TIME_OFFSET ( 1, 0, .AHEAD. ) ;
#14 = DIRECTION ( 'NONE',  ( 0.000000000000000000, 0.000000000000000000, 1.000000000000000000 ) ) ;
#15 = DATE_AND_TIME ( #47, #48 ) ;
#16 = DIRECTION ( 'NONE',  ( 0.000000000000000000, 0.000000000000000000, 1.000000000000000000 ) ) ;
#17 =( NAMED_UNIT ( * ) SI_UNIT ( $, .STERADIAN. ) SOLID_ANGLE_UNIT ( ) );
#18 = TOROIDAL_SURFACE ( 'NONE', #96, 5.200000000000001066, 0.2000000000000000111 ) ;
#19 = AXIS2_PLACEMENT_3D ( 'NONE', #167, #99, #288 ) ;
#20 = DIRECTION ( 'NONE',  ( 0.000000000000000000, 0.000000000000000000, 1.000000000000000000 ) ) ;
#21 = UNCERTAINTY_MEASURE_WITH_UNIT (LENGTH_MEASURE( 1.000000000000000082E-05 ), #281, 'distance_accuracy_value', 'NONE');
#22 = CALENDAR_DATE ( 2022, 7, 7 ) ;
#23 = FACE_OUTER_BOUND ( 'NONE', #234, .T. ) ;
#24 = DIRECTION ( 'NONE',  ( -1.000000000000000000, 1.224646799147353454E-16, 0.000000000000000000 ) ) ;
#25 = ADVANCED_FACE ( 'NONE', ( #173 ), #296, .T. ) ;
#26 = CARTESIAN_POINT ( 'NONE',  ( -5.200000000000001066, 6.368163355566237368E-16, 5.199999999999996625 ) ) ;
#27 = EDGE_CURVE ( 'NONE', #290, #31, #292, .T. ) ;
#28 = AXIS2_PLACEMENT_3D ( 'NONE', #76, #171, #6 ) ;
#29 = CC_DESIGN_DATE_AND_TIME_ASSIGNMENT ( #225, #114, ( #200 ) ) ;
#30 = CIRCLE ( 'NONE', #19, 8.000000000000000000 ) ;
#31 = VERTEX_POINT ( 'NONE', #216 ) ;
#32 = EDGE_CURVE ( 'NONE', #72, #31, #132, .T. ) ;
#33 = CARTESIAN_POINT ( 'NONE',  ( 5.000000000000000888, 6.123233995736767268E-16, 105.0000000000000142 ) ) ;
#34 = VERTEX_POINT ( 'NONE', #265 ) ;
#35 = ORIENTED_EDGE ( 'NONE', *, *, #232, .F. ) ;
#36 = DIRECTION ( 'NONE',  ( 0.000000000000000000, 0.000000000000000000, -1.000000000000000000 ) ) ;
#37 = EDGE_CURVE ( 'NONE', #262, #290, #274, .T. ) ;
#38 = CALENDAR_DATE ( 2022, 7, 7 ) ;
#39 = AXIS2_PLACEMENT_3D ( 'NONE', #137, #46, #161 ) ;
#40 = ORGANIZATION ( 'NEURÈENÝ', 'NEURÈENÝ', '' ) ;
#41 = APPROVAL_ROLE ( '' ) ;
#42 = DIRECTION ( 'NONE',  ( -0.000000000000000000, -0.000000000000000000, -1.000000000000000000 ) ) ;
#43 = PERSON_AND_ORGANIZATION_ROLE ( 'classification_officer' ) ;
#44 = CARTESIAN_POINT ( 'NONE',  ( 0.000000000000000000, 0.000000000000000000, 0.000000000000000000 ) ) ;
#45 = DATE_AND_TIME ( #70, #145 ) ;
#46 = DIRECTION ( 'NONE',  ( 0.000000000000000000, 0.000000000000000000, 1.000000000000000000 ) ) ;
#47 = CALENDAR_DATE ( 2022, 7, 7 ) ;
#48 = LOCAL_TIME ( 11, 55, 22.00000000000000000, #13 ) ;
#49 = DIRECTION ( 'NONE',  ( 1.000000000000000000, 0.000000000000000000, 0.000000000000000000 ) ) ;
#50 = CARTESIAN_POINT ( 'NONE',  ( 0.000000000000000000, 0.000000000000000000, 5.199999999999996625 ) ) ;
#51 = EDGE_CURVE ( 'NONE', #269, #57, #235, .T. ) ;
#52 = EDGE_LOOP ( 'NONE', ( #108, #73, #266, #169 ) ) ;
#53 = CIRCLE ( 'NONE', #103, 0.1999999999999996503 ) ;
#54 = CC_DESIGN_APPROVAL ( #143, ( #88 ) ) ;
#55 = CARTESIAN_POINT ( 'NONE',  ( 0.000000000000000000, 0.000000000000000000, 5.000000000000000000 ) ) ;
#56 = ADVANCED_BREP_SHAPE_REPRESENTATION ( '7acf', ( #244, #168 ), #2 ) ;
#57 = VERTEX_POINT ( 'NONE', #58 ) ;
#58 = CARTESIAN_POINT ( 'NONE',  ( 5.000000000000000888, 6.123233995736767268E-16, 5.199999999999996625 ) ) ;
#59 = CIRCLE ( 'NONE', #39, 5.000000000000000888 ) ;
#60 = AXIS2_PLACEMENT_3D ( 'NONE', #272, #243, #102 ) ;
#61 = VERTEX_POINT ( 'NONE', #69 ) ;
#62 = EDGE_CURVE ( 'NONE', #124, #269, #59, .T. ) ;
#63 = PRODUCT_DEFINITION_SHAPE ( 'NONE', 'NONE',  #213 ) ;
#64 = CARTESIAN_POINT ( 'NONE',  ( 0.000000000000000000, 0.000000000000000000, 0.000000000000000000 ) ) ;
#65 = CLOSED_SHELL ( 'NONE', ( #245, #279, #105, #224, #187, #74, #170, #25, #100 ) ) ;
#66 = PERSON_AND_ORGANIZATION ( #211, #40 ) ;
#67 = CARTESIAN_POINT ( 'NONE',  ( 0.000000000000000000, 0.000000000000000000, 5.199999999999996625 ) ) ;
#68 = COORDINATED_UNIVERSAL_TIME_OFFSET ( 1, 0, .AHEAD. ) ;
#69 = CARTESIAN_POINT ( 'NONE',  ( -5.000000000000000888, 0.000000000000000000, 5.199999999999996625 ) ) ;
#70 = CALENDAR_DATE ( 2022, 7, 7 ) ;
#71 = DIRECTION ( 'NONE',  ( -0.000000000000000000, -0.000000000000000000, -1.000000000000000000 ) ) ;
#72 = VERTEX_POINT ( 'NONE', #277 ) ;
#73 = ORIENTED_EDGE ( 'NONE', *, *, #51, .T. ) ;
#74 = ADVANCED_FACE ( 'NONE', ( #23 ), #226, .F. ) ;
#75 = ORIENTED_EDGE ( 'NONE', *, *, #32, .F. ) ;
#76 = CARTESIAN_POINT ( 'NONE',  ( 0.000000000000000000, 0.000000000000000000, 0.000000000000000000 ) ) ;
#77 = ORIENTED_EDGE ( 'NONE', *, *, #37, .T. ) ;
#78 = DIRECTION ( 'NONE',  ( 0.000000000000000000, 0.000000000000000000, 1.000000000000000000 ) ) ;
#79 = DIRECTION ( 'NONE',  ( 1.000000000000000000, 0.000000000000000000, 0.000000000000000000 ) ) ;
#80 = AXIS2_PLACEMENT_3D ( 'NONE', #115, #180, #113 ) ;
#81 = DIRECTION ( 'NONE',  ( 1.000000000000000000, 0.000000000000000000, 0.000000000000000000 ) ) ;
#82 = CYLINDRICAL_SURFACE ( 'NONE', #60, 5.000000000000000888 ) ;
#83 = DIRECTION ( 'NONE',  ( 1.000000000000000000, 0.000000000000000000, 0.000000000000000000 ) ) ;
#84 = EDGE_CURVE ( 'NONE', #294, #34, #285, .T. ) ;
#85 = PERSON_AND_ORGANIZATION_ROLE ( 'design_supplier' ) ;
#86 = DIRECTION ( 'NONE',  ( -1.000000000000000000, 0.000000000000000000, 0.000000000000000000 ) ) ;
#87 = AXIS2_PLACEMENT_3D ( 'NONE', #228, #258, #142 ) ;
#88 = PRODUCT_DEFINITION_FORMATION_WITH_SPECIFIED_SOURCE ( 'LIBOVOLNÝ', '', #134, .NOT_KNOWN. ) ;
#89 = PERSON_AND_ORGANIZATION_ROLE ( 'creator' ) ;
#90 = FACE_OUTER_BOUND ( 'NONE', #172, .T. ) ;
#91 = MECHANICAL_CONTEXT ( 'NONE', #125, 'mechanical' ) ;
#92 = DIRECTION ( 'NONE',  ( 1.000000000000000000, 0.000000000000000000, 0.000000000000000000 ) ) ;
#93 = CYLINDRICAL_SURFACE ( 'NONE', #87, 8.000000000000000000 ) ;
#94 = CYLINDRICAL_SURFACE ( 'NONE', #157, 8.000000000000000000 ) ;
#95 = DIRECTION ( 'NONE',  ( 1.000000000000000000, 0.000000000000000000, 0.000000000000000000 ) ) ;
#96 = AXIS2_PLACEMENT_3D ( 'NONE', #280, #184, #49 ) ;
#97 = CIRCLE ( 'NONE', #80, 5.200000000000001066 ) ;
#98 = ORIENTED_EDGE ( 'NONE', *, *, #197, .T. ) ;
#99 = DIRECTION ( 'NONE',  ( 0.000000000000000000, 0.000000000000000000, 1.000000000000000000 ) ) ;
#100 = ADVANCED_FACE ( 'NONE', ( #90 ), #18, .F. ) ;
#101 = ORIENTED_EDGE ( 'NONE', *, *, #219, .T. ) ;
#102 = DIRECTION ( 'NONE',  ( -1.000000000000000000, 0.000000000000000000, 0.000000000000000000 ) ) ;
#103 = AXIS2_PLACEMENT_3D ( 'NONE', #26, #123, #24 ) ;
#104 = ORIENTED_EDGE ( 'NONE', *, *, #240, .F. ) ;
#105 = ADVANCED_FACE ( 'NONE', ( #141 ), #94, .T. ) ;
#106 = EDGE_LOOP ( 'NONE', ( #129, #220 ) ) ;
#107 = DIRECTION ( 'NONE',  ( -0.000000000000000000, -0.000000000000000000, -1.000000000000000000 ) ) ;
#108 = ORIENTED_EDGE ( 'NONE', *, *, #3, .F. ) ;
#109 = APPROVAL_PERSON_ORGANIZATION ( #160, #143, #41 ) ;
#110 = CC_DESIGN_PERSON_AND_ORGANIZATION_ASSIGNMENT ( #66, #89, ( #213 ) ) ;
#111 = DIRECTION ( 'NONE',  ( -0.000000000000000000, -0.000000000000000000, -1.000000000000000000 ) ) ;
#112 = COORDINATED_UNIVERSAL_TIME_OFFSET ( 1, 0, .AHEAD. ) ;
#113 = DIRECTION ( 'NONE',  ( 1.000000000000000000, 0.000000000000000000, 0.000000000000000000 ) ) ;
#114 = DATE_TIME_ROLE ( 'classification_date' ) ;
#115 = CARTESIAN_POINT ( 'NONE',  ( 0.000000000000000000, 0.000000000000000000, 5.000000000000000000 ) ) ;
#116 = SHAPE_DEFINITION_REPRESENTATION ( #63, #56 ) ;
#117 = AXIS2_PLACEMENT_3D ( 'NONE', #307, #20, #119 ) ;
#118 = PERSON_AND_ORGANIZATION_ROLE ( 'design_owner' ) ;
#119 = DIRECTION ( 'NONE',  ( 1.000000000000000000, 0.000000000000000000, -0.000000000000000000 ) ) ;
#120 = PERSON_AND_ORGANIZATION ( #211, #40 ) ;
#121 = CARTESIAN_POINT ( 'NONE',  ( 0.000000000000000000, 0.000000000000000000, 5.000000000000000000 ) ) ;
#122 = CARTESIAN_POINT ( 'NONE',  ( 8.000000000000000000, 9.797174393178825657E-16, 5.000000000000000000 ) ) ;
#123 = DIRECTION ( 'NONE',  ( 1.224646799147353207E-16, 1.000000000000000000, -0.000000000000000000 ) ) ;
#124 = VERTEX_POINT ( 'NONE', #179 ) ;
#125 = APPLICATION_CONTEXT ( 'configuration controlled 3d designs of mechanical parts and assemblies' ) ;
#126 = AXIS2_PLACEMENT_3D ( 'NONE', #275, #42, #204 ) ;
#127 = ORIENTED_EDGE ( 'NONE', *, *, #3, .T. ) ;
#128 = DIRECTION ( 'NONE',  ( 1.000000000000000000, 0.000000000000000000, -0.000000000000000000 ) ) ;
#129 = ORIENTED_EDGE ( 'NONE', *, *, #84, .T. ) ;
#130 = CARTESIAN_POINT ( 'NONE',  ( 0.000000000000000000, 0.000000000000000000, 105.0000000000000142 ) ) ;
#131 = ORIENTED_EDGE ( 'NONE', *, *, #37, .F. ) ;
#132 = CIRCLE ( 'NONE', #28, 8.000000000000000000 ) ;
#133 = PERSON_AND_ORGANIZATION ( #211, #40 ) ;
#134 = PRODUCT ( '7acf', '7acf', '', ( #91 ) ) ;
#135 = APPROVAL_DATE_TIME ( #11, #143 ) ;
#136 = DIRECTION ( 'NONE',  ( 0.000000000000000000, 0.000000000000000000, 1.000000000000000000 ) ) ;
#137 = CARTESIAN_POINT ( 'NONE',  ( 0.000000000000000000, 0.000000000000000000, 105.0000000000000142 ) ) ;
#138 = AXIS2_PLACEMENT_3D ( 'NONE', #50, #229, #210 ) ;
#139 = APPLICATION_CONTEXT ( 'configuration controlled 3d designs of mechanical parts and assemblies' ) ;
#140 = DATE_TIME_ROLE ( 'creation_date' ) ;
#141 = FACE_OUTER_BOUND ( 'NONE', #195, .T. ) ;
#142 = DIRECTION ( 'NONE',  ( -1.000000000000000000, 0.000000000000000000, 0.000000000000000000 ) ) ;
#143 = APPROVAL ( #246, 'NEURÈENÝ' ) ;
#144 = CC_DESIGN_PERSON_AND_ORGANIZATION_ASSIGNMENT ( #133, #85, ( #88 ) ) ;
#145 = LOCAL_TIME ( 11, 55, 22.00000000000000000, #68 ) ;
#146 = CC_DESIGN_APPROVAL ( #284, ( #200 ) ) ;
#147 = ORIENTED_EDGE ( 'NONE', *, *, #197, .F. ) ;
#148 = DIRECTION ( 'NONE',  ( 1.000000000000000000, 0.000000000000000000, 0.000000000000000000 ) ) ;
#149 = CARTESIAN_POINT ( 'NONE',  ( -8.000000000000000000, 0.000000000000000000, 5.000000000000000000 ) ) ;
#150 = CC_DESIGN_PERSON_AND_ORGANIZATION_ASSIGNMENT ( #306, #43, ( #200 ) ) ;
#151 = DIRECTION ( 'NONE',  ( 1.000000000000000000, 0.000000000000000000, 0.000000000000000000 ) ) ;
#152 = VECTOR ( 'NONE', #193, 1000.000000000000000 ) ;
#153 = EDGE_LOOP ( 'NONE', ( #104, #190, #214, #98 ) ) ;
#154 = EDGE_CURVE ( 'NONE', #57, #61, #1, .T. ) ;
#155 = APPLICATION_PROTOCOL_DEFINITION ( 'international standard', 'config_control_design', 1994, #125 ) ;
#156 = FACE_OUTER_BOUND ( 'NONE', #189, .T. ) ;
#157 = AXIS2_PLACEMENT_3D ( 'NONE', #185, #71, #86 ) ;
#158 = PLANE ( 'NONE',  #199 ) ;
#159 = EDGE_CURVE ( 'NONE', #34, #294, #97, .T. ) ;
#160 = PERSON_AND_ORGANIZATION ( #211, #40 ) ;
#161 = DIRECTION ( 'NONE',  ( 1.000000000000000000, 0.000000000000000000, 0.000000000000000000 ) ) ;
#162 = VECTOR ( 'NONE', #209, 1000.000000000000000 ) ;
#163 = LOCAL_TIME ( 11, 55, 22.00000000000000000, #112 ) ;
#164 = APPROVAL ( #252, 'NEURÈENÝ' ) ;
#165 = FACE_OUTER_BOUND ( 'NONE', #153, .T. ) ;
#166 = ORIENTED_EDGE ( 'NONE', *, *, #51, .F. ) ;
#167 = CARTESIAN_POINT ( 'NONE',  ( 0.000000000000000000, 0.000000000000000000, 5.000000000000000000 ) ) ;
#168 = AXIS2_PLACEMENT_3D ( 'NONE', #64, #250, #81 ) ;
#169 = ORIENTED_EDGE ( 'NONE', *, *, #271, .F. ) ;
#170 = ADVANCED_FACE ( 'NONE', ( #273 ), #249, .T. ) ;
#171 = DIRECTION ( 'NONE',  ( 0.000000000000000000, 0.000000000000000000, 1.000000000000000000 ) ) ;
#172 = EDGE_LOOP ( 'NONE', ( #35, #174, #192, #267 ) ) ;
#173 = FACE_OUTER_BOUND ( 'NONE', #4, .T. ) ;
#174 = ORIENTED_EDGE ( 'NONE', *, *, #154, .F. ) ;
#175 = AXIS2_PLACEMENT_3D ( 'NONE', #67, #14, #83 ) ;
#176 = APPROVAL_PERSON_ORGANIZATION ( #278, #164, #302 ) ;
#177 = DATE_AND_TIME ( #38, #255 ) ;
#178 = APPLICATION_PROTOCOL_DEFINITION ( 'international standard', 'config_control_design', 1994, #139 ) ;
#179 = CARTESIAN_POINT ( 'NONE',  ( -5.000000000000000888, 0.000000000000000000, 105.0000000000000142 ) ) ;
#180 = DIRECTION ( 'NONE',  ( -0.000000000000000000, -0.000000000000000000, -1.000000000000000000 ) ) ;
#181 = AXIS2_PLACEMENT_3D ( 'NONE', #44, #136, #95 ) ;
#182 = LOCAL_TIME ( 11, 55, 22.00000000000000000, #227 ) ;
#183 = CALENDAR_DATE ( 2022, 7, 7 ) ;
#184 = DIRECTION ( 'NONE',  ( 0.000000000000000000, 0.000000000000000000, 1.000000000000000000 ) ) ;
#185 = CARTESIAN_POINT ( 'NONE',  ( 0.000000000000000000, 0.000000000000000000, 5.000000000000000000 ) ) ;
#186 = CARTESIAN_POINT ( 'NONE',  ( 0.000000000000000000, 0.000000000000000000, 5.199999999999996625 ) ) ;
#187 = ADVANCED_FACE ( 'NONE', ( #202, #156 ), #158, .T. ) ;
#188 = CC_DESIGN_SECURITY_CLASSIFICATION ( #200, ( #88 ) ) ;
#189 = EDGE_LOOP ( 'NONE', ( #297, #77 ) ) ;
#190 = ORIENTED_EDGE ( 'NONE', *, *, #305, .F. ) ;
#191 = CC_DESIGN_DATE_AND_TIME_ASSIGNMENT ( #45, #140, ( #213 ) ) ;
#192 = ORIENTED_EDGE ( 'NONE', *, *, #254, .T. ) ;
#193 = DIRECTION ( 'NONE',  ( -0.000000000000000000, -0.000000000000000000, -1.000000000000000000 ) ) ;
#194 = DIRECTION ( 'NONE',  ( 0.000000000000000000, 0.000000000000000000, 1.000000000000000000 ) ) ;
#195 = EDGE_LOOP ( 'NONE', ( #131, #198, #8, #287 ) ) ;
#196 = CARTESIAN_POINT ( 'NONE',  ( 5.200000000000001066, 0.000000000000000000, 5.199999999999996625 ) ) ;
#197 = EDGE_CURVE ( 'NONE', #31, #72, #259, .T. ) ;
#198 = ORIENTED_EDGE ( 'NONE', *, *, #240, .T. ) ;
#199 = AXIS2_PLACEMENT_3D ( 'NONE', #300, #16, #251 ) ;
#200 = SECURITY_CLASSIFICATION ( '', '', #223 ) ;
#201 = FACE_OUTER_BOUND ( 'NONE', #52, .T. ) ;
#202 = FACE_BOUND ( 'NONE', #106, .T. ) ;
#203 = PERSON_AND_ORGANIZATION ( #211, #40 ) ;
#204 = DIRECTION ( 'NONE',  ( -1.000000000000000000, 0.000000000000000000, 0.000000000000000000 ) ) ;
#205 = PERSON_AND_ORGANIZATION ( #211, #40 ) ;
#206 = DIRECTION ( 'NONE',  ( -0.000000000000000000, -0.000000000000000000, -1.000000000000000000 ) ) ;
#207 = FACE_OUTER_BOUND ( 'NONE', #217, .T. ) ;
#208 = PERSON_AND_ORGANIZATION_ROLE ( 'creator' ) ;
#209 = DIRECTION ( 'NONE',  ( -0.000000000000000000, -0.000000000000000000, -1.000000000000000000 ) ) ;
#210 = DIRECTION ( 'NONE',  ( 1.000000000000000000, 0.000000000000000000, 0.000000000000000000 ) ) ;
#211 = PERSON ( 'NEURÈENÝ', 'NEURÈENÝ', 'NEURÈENÝ', ('NEURÈENÝ'), ('NEURÈENÝ'), ('NEURÈENÝ') ) ;
#212 = CIRCLE ( 'NONE', #304, 5.000000000000000888 ) ;
#213 = PRODUCT_DEFINITION ( 'NEZNÁMÝ', '', #88, #256 ) ;
#214 = ORIENTED_EDGE ( 'NONE', *, *, #27, .T. ) ;
#215 = VECTOR ( 'NONE', #111, 1000.000000000000000 ) ;
#216 = CARTESIAN_POINT ( 'NONE',  ( -8.000000000000000000, 0.000000000000000000, 0.000000000000000000 ) ) ;
#217 = EDGE_LOOP ( 'NONE', ( #261, #7, #241, #264 ) ) ;
#218 = CARTESIAN_POINT ( 'NONE',  ( 0.000000000000000000, 0.000000000000000000, 105.0000000000000142 ) ) ;
#219 = EDGE_CURVE ( 'NONE', #61, #57, #230, .T. ) ;
#220 = ORIENTED_EDGE ( 'NONE', *, *, #159, .T. ) ;
#221 = CARTESIAN_POINT ( 'NONE',  ( -5.000000000000000888, 0.000000000000000000, 105.0000000000000142 ) ) ;
#222 = APPROVAL_ROLE ( '' ) ;
#223 = SECURITY_CLASSIFICATION_LEVEL ( 'unclassified' ) ;
#224 = ADVANCED_FACE ( 'NONE', ( #165 ), #93, .T. ) ;
#225 = DATE_AND_TIME ( #183, #163 ) ;
#226 = PLANE ( 'NONE',  #117 ) ;
#227 = COORDINATED_UNIVERSAL_TIME_OFFSET ( 1, 0, .AHEAD. ) ;
#228 = CARTESIAN_POINT ( 'NONE',  ( 0.000000000000000000, 0.000000000000000000, 5.000000000000000000 ) ) ;
#229 = DIRECTION ( 'NONE',  ( 0.000000000000000000, 0.000000000000000000, 1.000000000000000000 ) ) ;
#230 = CIRCLE ( 'NONE', #138, 5.000000000000000888 ) ;
#231 = ORIENTED_EDGE ( 'NONE', *, *, #62, .T. ) ;
#232 = EDGE_CURVE ( 'NONE', #61, #34, #53, .T. ) ;
#233 = CC_DESIGN_APPROVAL ( #164, ( #213 ) ) ;
#234 = EDGE_LOOP ( 'NONE', ( #147, #75 ) ) ;
#235 = LINE ( 'NONE', #33, #152 ) ;
#236 = CARTESIAN_POINT ( 'NONE',  ( 5.200000000000001066, 0.000000000000000000, 4.999999999999998224 ) ) ;
#237 = AXIS2_PLACEMENT_3D ( 'NONE', #55, #78, #148 ) ;
#238 = EDGE_LOOP ( 'NONE', ( #166, #293, #260, #101 ) ) ;
#239 = DIRECTION ( 'NONE',  ( 0.000000000000000000, 0.000000000000000000, 1.000000000000000000 ) ) ;
#240 = EDGE_CURVE ( 'NONE', #262, #72, #282, .T. ) ;
#241 = ORIENTED_EDGE ( 'NONE', *, *, #84, .F. ) ;
#242 = DIRECTION ( 'NONE',  ( 0.000000000000000000, -1.000000000000000000, 0.000000000000000000 ) ) ;
#243 = DIRECTION ( 'NONE',  ( -0.000000000000000000, -0.000000000000000000, -1.000000000000000000 ) ) ;
#244 = MANIFOLD_SOLID_BREP ( 'Zaoblit1', #65 ) ;
#245 = ADVANCED_FACE ( 'NONE', ( #207 ), #291, .F. ) ;
#246 = APPROVAL_STATUS ( 'not_yet_approved' ) ;
#247 = AXIS2_PLACEMENT_3D ( 'NONE', #218, #239, #128 ) ;
#248 = CIRCLE ( 'NONE', #298, 0.1999999999999996503 ) ;
#249 = CYLINDRICAL_SURFACE ( 'NONE', #126, 5.000000000000000888 ) ;
#250 = DIRECTION ( 'NONE',  ( 0.000000000000000000, 0.000000000000000000, 1.000000000000000000 ) ) ;
#251 = DIRECTION ( 'NONE',  ( 1.000000000000000000, 0.000000000000000000, -0.000000000000000000 ) ) ;
#252 = APPROVAL_STATUS ( 'not_yet_approved' ) ;
#253 = APPROVAL_DATE_TIME ( #15, #164 ) ;
#254 = EDGE_CURVE ( 'NONE', #57, #294, #248, .T. ) ;
#255 = LOCAL_TIME ( 11, 55, 22.00000000000000000, #12 ) ;
#256 = DESIGN_CONTEXT ( 'detailed design', #139, 'design' ) ;
#257 = PRODUCT_RELATED_PRODUCT_CATEGORY ( 'detail', '', ( #134 ) ) ;
#258 = DIRECTION ( 'NONE',  ( -0.000000000000000000, -0.000000000000000000, -1.000000000000000000 ) ) ;
#259 = CIRCLE ( 'NONE', #181, 8.000000000000000000 ) ;
#260 = ORIENTED_EDGE ( 'NONE', *, *, #271, .T. ) ;
#261 = ORIENTED_EDGE ( 'NONE', *, *, #219, .F. ) ;
#262 = VERTEX_POINT ( 'NONE', #9 ) ;
#263 = VECTOR ( 'NONE', #107, 1000.000000000000000 ) ;
#264 = ORIENTED_EDGE ( 'NONE', *, *, #254, .F. ) ;
#265 = CARTESIAN_POINT ( 'NONE',  ( -5.200000000000001066, 6.368163355566237368E-16, 4.999999999999998224 ) ) ;
#266 = ORIENTED_EDGE ( 'NONE', *, *, #154, .T. ) ;
#267 = ORIENTED_EDGE ( 'NONE', *, *, #159, .F. ) ;
#268 = DIRECTION ( 'NONE',  ( 0.000000000000000000, 0.000000000000000000, 1.000000000000000000 ) ) ;
#269 = VERTEX_POINT ( 'NONE', #299 ) ;
#270 = LINE ( 'NONE', #221, #215 ) ;
#271 = EDGE_CURVE ( 'NONE', #124, #61, #270, .T. ) ;
#272 = CARTESIAN_POINT ( 'NONE',  ( 0.000000000000000000, 0.000000000000000000, 105.0000000000000142 ) ) ;
#273 = FACE_OUTER_BOUND ( 'NONE', #238, .T. ) ;
#274 = CIRCLE ( 'NONE', #237, 8.000000000000000000 ) ;
#275 = CARTESIAN_POINT ( 'NONE',  ( 0.000000000000000000, 0.000000000000000000, 105.0000000000000142 ) ) ;
#276 =( NAMED_UNIT ( * ) PLANE_ANGLE_UNIT ( ) SI_UNIT ( $, .RADIAN. ) );
#277 = CARTESIAN_POINT ( 'NONE',  ( 8.000000000000000000, 9.797174393178825657E-16, 0.000000000000000000 ) ) ;
#278 = PERSON_AND_ORGANIZATION ( #211, #40 ) ;
#279 = ADVANCED_FACE ( 'NONE', ( #201 ), #82, .T. ) ;
#280 = CARTESIAN_POINT ( 'NONE',  ( 0.000000000000000000, 0.000000000000000000, 5.199999999999996625 ) ) ;
#281 =( LENGTH_UNIT ( ) NAMED_UNIT ( * ) SI_UNIT ( .MILLI., .METRE. ) );
#282 = LINE ( 'NONE', #122, #162 ) ;
#283 = CC_DESIGN_PERSON_AND_ORGANIZATION_ASSIGNMENT ( #120, #208, ( #88 ) ) ;
#284 = APPROVAL ( #303, 'NEURÈENÝ' ) ;
#285 = CIRCLE ( 'NONE', #10, 5.200000000000001066 ) ;
#286 = AXIS2_PLACEMENT_3D ( 'NONE', #186, #194, #79 ) ;
#287 = ORIENTED_EDGE ( 'NONE', *, *, #27, .F. ) ;
#288 = DIRECTION ( 'NONE',  ( 1.000000000000000000, 0.000000000000000000, 0.000000000000000000 ) ) ;
#289 = CC_DESIGN_PERSON_AND_ORGANIZATION_ASSIGNMENT ( #203, #118, ( #134 ) ) ;
#290 = VERTEX_POINT ( 'NONE', #149 ) ;
#291 = TOROIDAL_SURFACE ( 'NONE', #286, 5.200000000000001066, 0.2000000000000000111 ) ;
#292 = LINE ( 'NONE', #295, #263 ) ;
#293 = ORIENTED_EDGE ( 'NONE', *, *, #62, .F. ) ;
#294 = VERTEX_POINT ( 'NONE', #236 ) ;
#295 = CARTESIAN_POINT ( 'NONE',  ( -8.000000000000000000, 0.000000000000000000, 5.000000000000000000 ) ) ;
#296 = PLANE ( 'NONE',  #247 ) ;
#297 = ORIENTED_EDGE ( 'NONE', *, *, #305, .T. ) ;
#298 = AXIS2_PLACEMENT_3D ( 'NONE', #196, #242, #36 ) ;
#299 = CARTESIAN_POINT ( 'NONE',  ( 5.000000000000000888, 6.123233995736767268E-16, 105.0000000000000142 ) ) ;
#300 = CARTESIAN_POINT ( 'NONE',  ( 0.000000000000000000, 0.000000000000000000, 5.000000000000000000 ) ) ;
#301 = APPROVAL_DATE_TIME ( #177, #284 ) ;
#302 = APPROVAL_ROLE ( '' ) ;
#303 = APPROVAL_STATUS ( 'not_yet_approved' ) ;
#304 = AXIS2_PLACEMENT_3D ( 'NONE', #130, #268, #151 ) ;
#305 = EDGE_CURVE ( 'NONE', #290, #262, #30, .T. ) ;
#306 = PERSON_AND_ORGANIZATION ( #211, #40 ) ;
#307 = CARTESIAN_POINT ( 'NONE',  ( 0.000000000000000000, 0.000000000000000000, 0.000000000000000000 ) ) ;
ENDSEC;
END-ISO-10303-21;
