ISO-10303-21;
HEADER;
FILE_DESCRIPTION (( 'STEP AP203' ),
    '1' );
FILE_NAME ('ee4d.STEP',
    '2022-07-07T09:41:42',
    ( '' ),
    ( '' ),
    'SwSTEP 2.0',
    'SolidWorks 2019',
    '' );
FILE_SCHEMA (( 'CONFIG_CONTROL_DESIGN' ));
ENDSEC;

DATA;
#1 = CARTESIAN_POINT ( 'NONE',  ( -11.00000000000000000, 0.000000000000000000, 7.000000000000000000 ) ) ;
#2 = AXIS2_PLACEMENT_3D ( 'NONE', #65, #208, #302 ) ;
#3 = ADVANCED_FACE ( 'NONE', ( #44 ), #84, .F. ) ;
#4 = DIRECTION ( 'NONE',  ( 1.000000000000000000, 0.000000000000000000, 0.000000000000000000 ) ) ;
#5 = CARTESIAN_POINT ( 'NONE',  ( -7.000000000000000888, 0.000000000000000000, 107.0000000000000142 ) ) ;
#6 = CC_DESIGN_APPROVAL ( #178, ( #201 ) ) ;
#7 = DATE_AND_TIME ( #77, #273 ) ;
#8 = ADVANCED_FACE ( 'NONE', ( #235 ), #67, .T. ) ;
#9 = CIRCLE ( 'NONE', #42, 11.00000000000000000 ) ;
#10 = PERSON_AND_ORGANIZATION_ROLE ( 'creator' ) ;
#11 = APPROVAL_ROLE ( '' ) ;
#12 = PERSON_AND_ORGANIZATION ( #149, #60 ) ;
#13 = VERTEX_POINT ( 'NONE', #141 ) ;
#14 = APPROVAL ( #270, 'NEURÈENÝ' ) ;
#15 = COORDINATED_UNIVERSAL_TIME_OFFSET ( 1, 0, .AHEAD. ) ;
#16 = DATE_AND_TIME ( #133, #251 ) ;
#17 = ORIENTED_EDGE ( 'NONE', *, *, #211, .T. ) ;
#18 = ADVANCED_FACE ( 'NONE', ( #232 ), #164, .T. ) ;
#19 = FACE_OUTER_BOUND ( 'NONE', #275, .T. ) ;
#20 = ORIENTED_EDGE ( 'NONE', *, *, #116, .F. ) ;
#21 = CARTESIAN_POINT ( 'NONE',  ( -11.00000000000000000, 0.000000000000000000, 0.000000000000000000 ) ) ;
#22 = CIRCLE ( 'NONE', #61, 11.00000000000000000 ) ;
#23 = DIRECTION ( 'NONE',  ( 0.000000000000000000, -1.000000000000000000, 0.000000000000000000 ) ) ;
#24 = DIRECTION ( 'NONE',  ( 0.000000000000000000, 0.000000000000000000, -1.000000000000000000 ) ) ;
#25 = DESIGN_CONTEXT ( 'detailed design', #283, 'design' ) ;
#26 = DIRECTION ( 'NONE',  ( 1.000000000000000000, 0.000000000000000000, 0.000000000000000000 ) ) ;
#27 = CARTESIAN_POINT ( 'NONE',  ( 0.000000000000000000, 0.000000000000000000, 107.0000000000000142 ) ) ;
#28 = CARTESIAN_POINT ( 'NONE',  ( 0.000000000000000000, 0.000000000000000000, 0.000000000000000000 ) ) ;
#29 = PERSON_AND_ORGANIZATION_ROLE ( 'design_owner' ) ;
#30 = APPLICATION_PROTOCOL_DEFINITION ( 'international standard', 'config_control_design', 1994, #283 ) ;
#31 = ORIENTED_EDGE ( 'NONE', *, *, #301, .T. ) ;
#32 = AXIS2_PLACEMENT_3D ( 'NONE', #263, #50, #224 ) ;
#33 = PERSON_AND_ORGANIZATION ( #149, #60 ) ;
#34 = EDGE_LOOP ( 'NONE', ( #36, #272 ) ) ;
#35 = DIRECTION ( 'NONE',  ( 0.000000000000000000, 0.000000000000000000, 1.000000000000000000 ) ) ;
#36 = ORIENTED_EDGE ( 'NONE', *, *, #102, .F. ) ;
#37 = TOROIDAL_SURFACE ( 'NONE', #74, 7.200000000000001066, 0.2000000000000000111 ) ;
#38 = APPROVAL_DATE_TIME ( #16, #156 ) ;
#39 = ADVANCED_FACE ( 'NONE', ( #19 ), #109, .T. ) ;
#40 = LINE ( 'NONE', #115, #236 ) ;
#41 = VERTEX_POINT ( 'NONE', #254 ) ;
#42 = AXIS2_PLACEMENT_3D ( 'NONE', #28, #282, #4 ) ;
#43 = VERTEX_POINT ( 'NONE', #112 ) ;
#44 = FACE_OUTER_BOUND ( 'NONE', #88, .T. ) ;
#45 = VERTEX_POINT ( 'NONE', #21 ) ;
#46 = AXIS2_PLACEMENT_3D ( 'NONE', #306, #71, #90 ) ;
#47 = CARTESIAN_POINT ( 'NONE',  ( 0.000000000000000000, 0.000000000000000000, 7.000000000000000000 ) ) ;
#48 = EDGE_CURVE ( 'NONE', #86, #276, #40, .T. ) ;
#49 = CARTESIAN_POINT ( 'NONE',  ( -7.000000000000000888, 0.000000000000000000, 107.0000000000000142 ) ) ;
#50 = DIRECTION ( 'NONE',  ( 0.000000000000000000, 0.000000000000000000, 1.000000000000000000 ) ) ;
#51 = LINE ( 'NONE', #49, #269 ) ;
#52 = DIRECTION ( 'NONE',  ( 1.000000000000000000, 0.000000000000000000, 0.000000000000000000 ) ) ;
#53 = PERSON_AND_ORGANIZATION_ROLE ( 'design_supplier' ) ;
#54 = PRODUCT_DEFINITION_SHAPE ( 'NONE', 'NONE',  #201 ) ;
#55 = PERSON_AND_ORGANIZATION ( #149, #60 ) ;
#56 = AXIS2_PLACEMENT_3D ( 'NONE', #145, #220, #95 ) ;
#57 = DATE_TIME_ROLE ( 'creation_date' ) ;
#58 = ADVANCED_FACE ( 'NONE', ( #89 ), #37, .F. ) ;
#59 = ORIENTED_EDGE ( 'NONE', *, *, #66, .T. ) ;
#60 = ORGANIZATION ( 'NEURÈENÝ', 'NEURÈENÝ', '' ) ;
#61 = AXIS2_PLACEMENT_3D ( 'NONE', #193, #239, #219 ) ;
#62 = EDGE_CURVE ( 'NONE', #13, #101, #252, .T. ) ;
#63 = AXIS2_PLACEMENT_3D ( 'NONE', #27, #217, #191 ) ;
#64 = ORIENTED_EDGE ( 'NONE', *, *, #223, .T. ) ;
#65 = CARTESIAN_POINT ( 'NONE',  ( 0.000000000000000000, 0.000000000000000000, 7.000000000000000000 ) ) ;
#66 = EDGE_CURVE ( 'NONE', #155, #41, #287, .T. ) ;
#67 = CYLINDRICAL_SURFACE ( 'NONE', #2, 11.00000000000000000 ) ;
#68 = ORIENTED_EDGE ( 'NONE', *, *, #277, .F. ) ;
#69 = FACE_OUTER_BOUND ( 'NONE', #34, .T. ) ;
#70 = EDGE_CURVE ( 'NONE', #43, #155, #190, .T. ) ;
#71 = DIRECTION ( 'NONE',  ( 0.000000000000000000, 0.000000000000000000, 1.000000000000000000 ) ) ;
#72 = FACE_OUTER_BOUND ( 'NONE', #159, .T. ) ;
#73 = PLANE ( 'NONE',  #158 ) ;
#74 = AXIS2_PLACEMENT_3D ( 'NONE', #166, #230, #207 ) ;
#75 = DIRECTION ( 'NONE',  ( 1.000000000000000000, 0.000000000000000000, -0.000000000000000000 ) ) ;
#76 = APPROVAL_DATE_TIME ( #249, #14 ) ;
#77 = CALENDAR_DATE ( 2022, 7, 7 ) ;
#78 = APPLICATION_CONTEXT ( 'configuration controlled 3d designs of mechanical parts and assemblies' ) ;
#79 = ORIENTED_EDGE ( 'NONE', *, *, #289, .F. ) ;
#80 = PERSON_AND_ORGANIZATION_ROLE ( 'classification_officer' ) ;
#81 = APPROVAL_STATUS ( 'not_yet_approved' ) ;
#82 = ORIENTED_EDGE ( 'NONE', *, *, #216, .T. ) ;
#83 = ORIENTED_EDGE ( 'NONE', *, *, #62, .F. ) ;
#84 = TOROIDAL_SURFACE ( 'NONE', #218, 7.200000000000001066, 0.2000000000000000111 ) ;
#85 = DIRECTION ( 'NONE',  ( 1.000000000000000000, 0.000000000000000000, 0.000000000000000000 ) ) ;
#86 = VERTEX_POINT ( 'NONE', #290 ) ;
#87 = PRODUCT_RELATED_PRODUCT_CATEGORY ( 'detail', '', ( #284 ) ) ;
#88 = EDGE_LOOP ( 'NONE', ( #260, #255, #79, #225 ) ) ;
#89 = FACE_OUTER_BOUND ( 'NONE', #108, .T. ) ;
#90 = DIRECTION ( 'NONE',  ( 1.000000000000000000, 0.000000000000000000, -0.000000000000000000 ) ) ;
#91 = ADVANCED_FACE ( 'NONE', ( #69 ), #73, .F. ) ;
#92 = LINE ( 'NONE', #1, #274 ) ;
#93 = AXIS2_PLACEMENT_3D ( 'NONE', #150, #192, #215 ) ;
#94 = DIRECTION ( 'NONE',  ( 0.000000000000000000, 0.000000000000000000, 1.000000000000000000 ) ) ;
#95 = DIRECTION ( 'NONE',  ( -1.000000000000000000, 1.224646799147358384E-16, 0.000000000000000000 ) ) ;
#96 = CARTESIAN_POINT ( 'NONE',  ( 0.000000000000000000, 0.000000000000000000, 7.199999999999998401 ) ) ;
#97 = APPROVAL_PERSON_ORGANIZATION ( #247, #178, #11 ) ;
#98 = CIRCLE ( 'NONE', #93, 7.000000000000000888 ) ;
#99 = APPROVAL_ROLE ( '' ) ;
#100 = DIRECTION ( 'NONE',  ( 1.000000000000000000, 0.000000000000000000, 0.000000000000000000 ) ) ;
#101 = VERTEX_POINT ( 'NONE', #124 ) ;
#102 = EDGE_CURVE ( 'NONE', #45, #229, #22, .T. ) ;
#103 = PERSON_AND_ORGANIZATION ( #149, #60 ) ;
#104 = ADVANCED_BREP_SHAPE_REPRESENTATION ( 'ee4d', ( #136, #195 ), #292 ) ;
#105 = PERSON_AND_ORGANIZATION ( #149, #60 ) ;
#106 = AXIS2_PLACEMENT_3D ( 'NONE', #47, #169, #262 ) ;
#107 = DATE_AND_TIME ( #174, #202 ) ;
#108 = EDGE_LOOP ( 'NONE', ( #303, #20, #183, #143 ) ) ;
#109 = CYLINDRICAL_SURFACE ( 'NONE', #175, 11.00000000000000000 ) ;
#110 = APPROVAL_PERSON_ORGANIZATION ( #12, #14, #99 ) ;
#111 = ORIENTED_EDGE ( 'NONE', *, *, #142, .F. ) ;
#112 = CARTESIAN_POINT ( 'NONE',  ( -7.000000000000000888, 0.000000000000000000, 7.199999999999998401 ) ) ;
#113 = EDGE_CURVE ( 'NONE', #101, #229, #171, .T. ) ;
#114 = ORIENTED_EDGE ( 'NONE', *, *, #223, .F. ) ;
#115 = CARTESIAN_POINT ( 'NONE',  ( 7.000000000000000888, 8.572527594031474176E-16, 107.0000000000000142 ) ) ;
#116 = EDGE_CURVE ( 'NONE', #276, #43, #98, .T. ) ;
#117 = CARTESIAN_POINT ( 'NONE',  ( 0.000000000000000000, 0.000000000000000000, 0.000000000000000000 ) ) ;
#118 = CARTESIAN_POINT ( 'NONE',  ( 11.00000000000000000, 1.347111479062088405E-15, 0.000000000000000000 ) ) ;
#119 = CYLINDRICAL_SURFACE ( 'NONE', #63, 7.000000000000000888 ) ;
#120 = SECURITY_CLASSIFICATION ( '', '', #250 ) ;
#121 = AXIS2_PLACEMENT_3D ( 'NONE', #167, #266, #188 ) ;
#122 = FACE_OUTER_BOUND ( 'NONE', #138, .T. ) ;
#123 = CC_DESIGN_PERSON_AND_ORGANIZATION_ASSIGNMENT ( #105, #80, ( #120 ) ) ;
#124 = CARTESIAN_POINT ( 'NONE',  ( 11.00000000000000000, 1.347111479062088405E-15, 7.000000000000000000 ) ) ;
#125 = LOCAL_TIME ( 11, 41, 42.00000000000000000, #267 ) ;
#126 = CLOSED_SHELL ( 'NONE', ( #3, #293, #8, #39, #297, #91, #18, #257, #58 ) ) ;
#127 = APPROVAL_DATE_TIME ( #7, #178 ) ;
#128 = CC_DESIGN_DATE_AND_TIME_ASSIGNMENT ( #107, #204, ( #120 ) ) ;
#129 = DIRECTION ( 'NONE',  ( 0.000000000000000000, 0.000000000000000000, 1.000000000000000000 ) ) ;
#130 = ORIENTED_EDGE ( 'NONE', *, *, #48, .F. ) ;
#131 =( NAMED_UNIT ( * ) PLANE_ANGLE_UNIT ( ) SI_UNIT ( $, .RADIAN. ) );
#132 = EDGE_LOOP ( 'NONE', ( #68, #176, #82, #111 ) ) ;
#133 = CALENDAR_DATE ( 2022, 7, 7 ) ;
#134 = VERTEX_POINT ( 'NONE', #5 ) ;
#135 = EDGE_LOOP ( 'NONE', ( #162, #59 ) ) ;
#136 = MANIFOLD_SOLID_BREP ( 'Zaoblit1', #126 ) ;
#137 = CC_DESIGN_PERSON_AND_ORGANIZATION_ASSIGNMENT ( #103, #199, ( #201 ) ) ;
#138 = EDGE_LOOP ( 'NONE', ( #114, #233, #200, #298 ) ) ;
#139 = CIRCLE ( 'NONE', #144, 7.000000000000000888 ) ;
#140 = CARTESIAN_POINT ( 'NONE',  ( 0.000000000000000000, 0.000000000000000000, 7.000000000000000000 ) ) ;
#141 = CARTESIAN_POINT ( 'NONE',  ( -11.00000000000000000, 0.000000000000000000, 7.000000000000000000 ) ) ;
#142 = EDGE_CURVE ( 'NONE', #13, #45, #92, .T. ) ;
#143 = ORIENTED_EDGE ( 'NONE', *, *, #66, .F. ) ;
#144 = AXIS2_PLACEMENT_3D ( 'NONE', #96, #186, #172 ) ;
#145 = CARTESIAN_POINT ( 'NONE',  ( -7.200000000000001066, 8.817456953860944275E-16, 7.199999999999998401 ) ) ;
#146 = CARTESIAN_POINT ( 'NONE',  ( 0.000000000000000000, 0.000000000000000000, 7.000000000000000000 ) ) ;
#147 = CARTESIAN_POINT ( 'NONE',  ( 11.00000000000000000, 1.347111479062088405E-15, 7.000000000000000000 ) ) ;
#148 = EDGE_CURVE ( 'NONE', #134, #43, #51, .T. ) ;
#149 = PERSON ( 'NEURÈENÝ', 'NEURÈENÝ', 'NEURÈENÝ', ('NEURÈENÝ'), ('NEURÈENÝ'), ('NEURÈENÝ') ) ;
#150 = CARTESIAN_POINT ( 'NONE',  ( 0.000000000000000000, 0.000000000000000000, 7.199999999999998401 ) ) ;
#151 = CARTESIAN_POINT ( 'NONE',  ( 7.200000000000001066, 0.000000000000000000, 7.199999999999998401 ) ) ;
#152 = EDGE_LOOP ( 'NONE', ( #130, #198, #209, #17 ) ) ;
#153 =( LENGTH_UNIT ( ) NAMED_UNIT ( * ) SI_UNIT ( .MILLI., .METRE. ) );
#154 = CALENDAR_DATE ( 2022, 7, 7 ) ;
#155 = VERTEX_POINT ( 'NONE', #242 ) ;
#156 = APPROVAL ( #81, 'NEURÈENÝ' ) ;
#157 = APPROVAL_ROLE ( '' ) ;
#158 = AXIS2_PLACEMENT_3D ( 'NONE', #117, #94, #75 ) ;
#159 = EDGE_LOOP ( 'NONE', ( #184, #258 ) ) ;
#160 = DIRECTION ( 'NONE',  ( -0.000000000000000000, -0.000000000000000000, -1.000000000000000000 ) ) ;
#161 = CC_DESIGN_DATE_AND_TIME_ASSIGNMENT ( #222, #57, ( #201 ) ) ;
#162 = ORIENTED_EDGE ( 'NONE', *, *, #289, .T. ) ;
#163 = AXIS2_PLACEMENT_3D ( 'NONE', #271, #35, #100 ) ;
#164 = CYLINDRICAL_SURFACE ( 'NONE', #279, 7.000000000000000888 ) ;
#165 = CARTESIAN_POINT ( 'NONE',  ( 0.000000000000000000, 0.000000000000000000, 107.0000000000000142 ) ) ;
#166 = CARTESIAN_POINT ( 'NONE',  ( 0.000000000000000000, 0.000000000000000000, 7.199999999999998401 ) ) ;
#167 = CARTESIAN_POINT ( 'NONE',  ( 0.000000000000000000, 0.000000000000000000, 107.0000000000000142 ) ) ;
#168 = AXIS2_PLACEMENT_3D ( 'NONE', #146, #238, #26 ) ;
#169 = DIRECTION ( 'NONE',  ( 0.000000000000000000, 0.000000000000000000, 1.000000000000000000 ) ) ;
#170 = PLANE ( 'NONE',  #32 ) ;
#171 = LINE ( 'NONE', #147, #231 ) ;
#172 = DIRECTION ( 'NONE',  ( 1.000000000000000000, 0.000000000000000000, 0.000000000000000000 ) ) ;
#173 = CARTESIAN_POINT ( 'NONE',  ( 0.000000000000000000, 0.000000000000000000, 0.000000000000000000 ) ) ;
#174 = CALENDAR_DATE ( 2022, 7, 7 ) ;
#175 = AXIS2_PLACEMENT_3D ( 'NONE', #140, #259, #205 ) ;
#176 = ORIENTED_EDGE ( 'NONE', *, *, #113, .T. ) ;
#177 = COORDINATED_UNIVERSAL_TIME_OFFSET ( 1, 0, .AHEAD. ) ;
#178 = APPROVAL ( #221, 'NEURÈENÝ' ) ;
#179 = CALENDAR_DATE ( 2022, 7, 7 ) ;
#180 = CIRCLE ( 'NONE', #294, 0.1999999999999996503 ) ;
#181 = DIRECTION ( 'NONE',  ( 1.000000000000000000, 0.000000000000000000, 0.000000000000000000 ) ) ;
#182 = CARTESIAN_POINT ( 'NONE',  ( 0.000000000000000000, 0.000000000000000000, 7.000000000000000000 ) ) ;
#183 = ORIENTED_EDGE ( 'NONE', *, *, #248, .T. ) ;
#184 = ORIENTED_EDGE ( 'NONE', *, *, #62, .T. ) ;
#185 = DIRECTION ( 'NONE',  ( 0.000000000000000000, 0.000000000000000000, 1.000000000000000000 ) ) ;
#186 = DIRECTION ( 'NONE',  ( 0.000000000000000000, 0.000000000000000000, 1.000000000000000000 ) ) ;
#187 = UNCERTAINTY_MEASURE_WITH_UNIT (LENGTH_MEASURE( 1.000000000000000082E-05 ), #153, 'distance_accuracy_value', 'NONE');
#188 = DIRECTION ( 'NONE',  ( 1.000000000000000000, 0.000000000000000000, 0.000000000000000000 ) ) ;
#189 = CC_DESIGN_APPROVAL ( #14, ( #245 ) ) ;
#190 = CIRCLE ( 'NONE', #56, 0.1999999999999996503 ) ;
#191 = DIRECTION ( 'NONE',  ( -1.000000000000000000, 0.000000000000000000, 0.000000000000000000 ) ) ;
#192 = DIRECTION ( 'NONE',  ( 0.000000000000000000, 0.000000000000000000, 1.000000000000000000 ) ) ;
#193 = CARTESIAN_POINT ( 'NONE',  ( 0.000000000000000000, 0.000000000000000000, 0.000000000000000000 ) ) ;
#194 = CC_DESIGN_PERSON_AND_ORGANIZATION_ASSIGNMENT ( #33, #53, ( #245 ) ) ;
#195 = AXIS2_PLACEMENT_3D ( 'NONE', #173, #129, #243 ) ;
#196 = AXIS2_PLACEMENT_3D ( 'NONE', #182, #307, #52 ) ;
#197 = COORDINATED_UNIVERSAL_TIME_OFFSET ( 1, 0, .AHEAD. ) ;
#198 = ORIENTED_EDGE ( 'NONE', *, *, #301, .F. ) ;
#199 = PERSON_AND_ORGANIZATION_ROLE ( 'creator' ) ;
#200 = ORIENTED_EDGE ( 'NONE', *, *, #116, .T. ) ;
#201 = PRODUCT_DEFINITION ( 'NEZNÁMÝ', '', #245, #25 ) ;
#202 = LOCAL_TIME ( 11, 41, 42.00000000000000000, #15 ) ;
#203 = MECHANICAL_CONTEXT ( 'NONE', #78, 'mechanical' ) ;
#204 = DATE_TIME_ROLE ( 'classification_date' ) ;
#205 = DIRECTION ( 'NONE',  ( -1.000000000000000000, 0.000000000000000000, 0.000000000000000000 ) ) ;
#206 = AXIS2_PLACEMENT_3D ( 'NONE', #281, #300, #85 ) ;
#207 = DIRECTION ( 'NONE',  ( 1.000000000000000000, 0.000000000000000000, 0.000000000000000000 ) ) ;
#208 = DIRECTION ( 'NONE',  ( -0.000000000000000000, -0.000000000000000000, -1.000000000000000000 ) ) ;
#209 = ORIENTED_EDGE ( 'NONE', *, *, #148, .T. ) ;
#210 = CC_DESIGN_SECURITY_CLASSIFICATION ( #120, ( #245 ) ) ;
#211 = EDGE_CURVE ( 'NONE', #43, #276, #139, .T. ) ;
#212 = APPROVAL_PERSON_ORGANIZATION ( #296, #156, #157 ) ;
#213 = EDGE_LOOP ( 'NONE', ( #31, #64 ) ) ;
#214 = PLANE ( 'NONE',  #46 ) ;
#215 = DIRECTION ( 'NONE',  ( 1.000000000000000000, 0.000000000000000000, 0.000000000000000000 ) ) ;
#216 = EDGE_CURVE ( 'NONE', #229, #45, #9, .T. ) ;
#217 = DIRECTION ( 'NONE',  ( -0.000000000000000000, -0.000000000000000000, -1.000000000000000000 ) ) ;
#218 = AXIS2_PLACEMENT_3D ( 'NONE', #280, #185, #181 ) ;
#219 = DIRECTION ( 'NONE',  ( 1.000000000000000000, 0.000000000000000000, 0.000000000000000000 ) ) ;
#220 = DIRECTION ( 'NONE',  ( 1.224646799147353207E-16, 1.000000000000000000, -0.000000000000000000 ) ) ;
#221 = APPROVAL_STATUS ( 'not_yet_approved' ) ;
#222 = DATE_AND_TIME ( #154, #125 ) ;
#223 = EDGE_CURVE ( 'NONE', #86, #134, #256, .T. ) ;
#224 = DIRECTION ( 'NONE',  ( 1.000000000000000000, 0.000000000000000000, -0.000000000000000000 ) ) ;
#225 = ORIENTED_EDGE ( 'NONE', *, *, #248, .F. ) ;
#226 = APPLICATION_PROTOCOL_DEFINITION ( 'international standard', 'config_control_design', 1994, #78 ) ;
#227 = CC_DESIGN_PERSON_AND_ORGANIZATION_ASSIGNMENT ( #295, #29, ( #284 ) ) ;
#228 = COORDINATED_UNIVERSAL_TIME_OFFSET ( 1, 0, .AHEAD. ) ;
#229 = VERTEX_POINT ( 'NONE', #118 ) ;
#230 = DIRECTION ( 'NONE',  ( 0.000000000000000000, 0.000000000000000000, 1.000000000000000000 ) ) ;
#231 = VECTOR ( 'NONE', #237, 1000.000000000000000 ) ;
#232 = FACE_OUTER_BOUND ( 'NONE', #152, .T. ) ;
#233 = ORIENTED_EDGE ( 'NONE', *, *, #48, .T. ) ;
#234 = DIRECTION ( 'NONE',  ( -1.000000000000000000, 0.000000000000000000, 0.000000000000000000 ) ) ;
#235 = FACE_OUTER_BOUND ( 'NONE', #132, .T. ) ;
#236 = VECTOR ( 'NONE', #305, 1000.000000000000000 ) ;
#237 = DIRECTION ( 'NONE',  ( -0.000000000000000000, -0.000000000000000000, -1.000000000000000000 ) ) ;
#238 = DIRECTION ( 'NONE',  ( -0.000000000000000000, -0.000000000000000000, -1.000000000000000000 ) ) ;
#239 = DIRECTION ( 'NONE',  ( 0.000000000000000000, 0.000000000000000000, 1.000000000000000000 ) ) ;
#240 = CIRCLE ( 'NONE', #106, 11.00000000000000000 ) ;
#241 = CC_DESIGN_APPROVAL ( #156, ( #120 ) ) ;
#242 = CARTESIAN_POINT ( 'NONE',  ( -7.200000000000001066, 8.817456953860944275E-16, 6.999999999999999112 ) ) ;
#243 = DIRECTION ( 'NONE',  ( 1.000000000000000000, 0.000000000000000000, 0.000000000000000000 ) ) ;
#244 =( NAMED_UNIT ( * ) SI_UNIT ( $, .STERADIAN. ) SOLID_ANGLE_UNIT ( ) );
#245 = PRODUCT_DEFINITION_FORMATION_WITH_SPECIFIED_SOURCE ( 'LIBOVOLNÝ', '', #284, .NOT_KNOWN. ) ;
#246 = ORIENTED_EDGE ( 'NONE', *, *, #142, .T. ) ;
#247 = PERSON_AND_ORGANIZATION ( #149, #60 ) ;
#248 = EDGE_CURVE ( 'NONE', #276, #41, #180, .T. ) ;
#249 = DATE_AND_TIME ( #179, #285 ) ;
#250 = SECURITY_CLASSIFICATION_LEVEL ( 'unclassified' ) ;
#251 = LOCAL_TIME ( 11, 41, 42.00000000000000000, #228 ) ;
#252 = CIRCLE ( 'NONE', #206, 11.00000000000000000 ) ;
#253 = SHAPE_DEFINITION_REPRESENTATION ( #54, #104 ) ;
#254 = CARTESIAN_POINT ( 'NONE',  ( 7.200000000000001066, 0.000000000000000000, 6.999999999999999112 ) ) ;
#255 = ORIENTED_EDGE ( 'NONE', *, *, #70, .T. ) ;
#256 = CIRCLE ( 'NONE', #121, 7.000000000000000888 ) ;
#257 = ADVANCED_FACE ( 'NONE', ( #286 ), #214, .T. ) ;
#258 = ORIENTED_EDGE ( 'NONE', *, *, #277, .T. ) ;
#259 = DIRECTION ( 'NONE',  ( -0.000000000000000000, -0.000000000000000000, -1.000000000000000000 ) ) ;
#260 = ORIENTED_EDGE ( 'NONE', *, *, #211, .F. ) ;
#261 = CARTESIAN_POINT ( 'NONE',  ( 7.000000000000000888, 8.572527594031474176E-16, 7.199999999999998401 ) ) ;
#262 = DIRECTION ( 'NONE',  ( 1.000000000000000000, 0.000000000000000000, 0.000000000000000000 ) ) ;
#263 = CARTESIAN_POINT ( 'NONE',  ( 0.000000000000000000, 0.000000000000000000, 7.000000000000000000 ) ) ;
#264 = DIRECTION ( 'NONE',  ( -0.000000000000000000, -0.000000000000000000, -1.000000000000000000 ) ) ;
#265 = CC_DESIGN_PERSON_AND_ORGANIZATION_ASSIGNMENT ( #55, #10, ( #245 ) ) ;
#266 = DIRECTION ( 'NONE',  ( 0.000000000000000000, 0.000000000000000000, 1.000000000000000000 ) ) ;
#267 = COORDINATED_UNIVERSAL_TIME_OFFSET ( 1, 0, .AHEAD. ) ;
#268 = ORIENTED_EDGE ( 'NONE', *, *, #113, .F. ) ;
#269 = VECTOR ( 'NONE', #264, 1000.000000000000000 ) ;
#270 = APPROVAL_STATUS ( 'not_yet_approved' ) ;
#271 = CARTESIAN_POINT ( 'NONE',  ( 0.000000000000000000, 0.000000000000000000, 107.0000000000000142 ) ) ;
#272 = ORIENTED_EDGE ( 'NONE', *, *, #216, .F. ) ;
#273 = LOCAL_TIME ( 11, 41, 42.00000000000000000, #177 ) ;
#274 = VECTOR ( 'NONE', #291, 1000.000000000000000 ) ;
#275 = EDGE_LOOP ( 'NONE', ( #268, #83, #246, #278 ) ) ;
#276 = VERTEX_POINT ( 'NONE', #261 ) ;
#277 = EDGE_CURVE ( 'NONE', #101, #13, #240, .T. ) ;
#278 = ORIENTED_EDGE ( 'NONE', *, *, #102, .T. ) ;
#279 = AXIS2_PLACEMENT_3D ( 'NONE', #165, #160, #234 ) ;
#280 = CARTESIAN_POINT ( 'NONE',  ( 0.000000000000000000, 0.000000000000000000, 7.199999999999998401 ) ) ;
#281 = CARTESIAN_POINT ( 'NONE',  ( 0.000000000000000000, 0.000000000000000000, 7.000000000000000000 ) ) ;
#282 = DIRECTION ( 'NONE',  ( 0.000000000000000000, 0.000000000000000000, 1.000000000000000000 ) ) ;
#283 = APPLICATION_CONTEXT ( 'configuration controlled 3d designs of mechanical parts and assemblies' ) ;
#284 = PRODUCT ( 'ee4d', 'ee4d', '', ( #203 ) ) ;
#285 = LOCAL_TIME ( 11, 41, 42.00000000000000000, #197 ) ;
#286 = FACE_OUTER_BOUND ( 'NONE', #213, .T. ) ;
#287 = CIRCLE ( 'NONE', #196, 7.200000000000001066 ) ;
#288 = FACE_BOUND ( 'NONE', #135, .T. ) ;
#289 = EDGE_CURVE ( 'NONE', #41, #155, #299, .T. ) ;
#290 = CARTESIAN_POINT ( 'NONE',  ( 7.000000000000000888, 8.572527594031474176E-16, 107.0000000000000142 ) ) ;
#291 = DIRECTION ( 'NONE',  ( -0.000000000000000000, -0.000000000000000000, -1.000000000000000000 ) ) ;
#292 =( GEOMETRIC_REPRESENTATION_CONTEXT ( 3 ) GLOBAL_UNCERTAINTY_ASSIGNED_CONTEXT ( ( #187 ) ) GLOBAL_UNIT_ASSIGNED_CONTEXT ( ( #153, #131, #244 ) ) REPRESENTATION_CONTEXT ( 'NONE', 'WORKASPACE' ) );
#293 = ADVANCED_FACE ( 'NONE', ( #122 ), #119, .T. ) ;
#294 = AXIS2_PLACEMENT_3D ( 'NONE', #151, #23, #24 ) ;
#295 = PERSON_AND_ORGANIZATION ( #149, #60 ) ;
#296 = PERSON_AND_ORGANIZATION ( #149, #60 ) ;
#297 = ADVANCED_FACE ( 'NONE', ( #288, #72 ), #170, .T. ) ;
#298 = ORIENTED_EDGE ( 'NONE', *, *, #148, .F. ) ;
#299 = CIRCLE ( 'NONE', #168, 7.200000000000001066 ) ;
#300 = DIRECTION ( 'NONE',  ( 0.000000000000000000, 0.000000000000000000, 1.000000000000000000 ) ) ;
#301 = EDGE_CURVE ( 'NONE', #134, #86, #304, .T. ) ;
#302 = DIRECTION ( 'NONE',  ( -1.000000000000000000, 0.000000000000000000, 0.000000000000000000 ) ) ;
#303 = ORIENTED_EDGE ( 'NONE', *, *, #70, .F. ) ;
#304 = CIRCLE ( 'NONE', #163, 7.000000000000000888 ) ;
#305 = DIRECTION ( 'NONE',  ( -0.000000000000000000, -0.000000000000000000, -1.000000000000000000 ) ) ;
#306 = CARTESIAN_POINT ( 'NONE',  ( 0.000000000000000000, 0.000000000000000000, 107.0000000000000142 ) ) ;
#307 = DIRECTION ( 'NONE',  ( -0.000000000000000000, -0.000000000000000000, -1.000000000000000000 ) ) ;
ENDSEC;
END-ISO-10303-21;
