ISO-10303-21;
HEADER;
FILE_DESCRIPTION (( 'STEP AP203' ),
    '1' );
FILE_NAME ('0932.STEP',
    '2022-07-07T10:10:14',
    ( '' ),
    ( '' ),
    'SwSTEP 2.0',
    'SolidWorks 2019',
    '' );
FILE_SCHEMA (( 'CONFIG_CONTROL_DESIGN' ));
ENDSEC;

DATA;
#1 = FACE_OUTER_BOUND ( 'NONE', #59, .T. ) ;
#2 = DIRECTION ( 'NONE',  ( -1.000000000000000000, 1.224646799147353207E-16, 0.000000000000000000 ) ) ;
#3 = ADVANCED_FACE ( 'NONE', ( #41 ), #127, .T. ) ;
#4 = APPROVAL_DATE_TIME ( #58, #259 ) ;
#5 = COORDINATED_UNIVERSAL_TIME_OFFSET ( 1, 0, .AHEAD. ) ;
#6 = VERTEX_POINT ( 'NONE', #252 ) ;
#7 = EDGE_CURVE ( 'NONE', #40, #6, #286, .T. ) ;
#8 = DATE_TIME_ROLE ( 'classification_date' ) ;
#9 = APPLICATION_PROTOCOL_DEFINITION ( 'international standard', 'config_control_design', 1994, #75 ) ;
#10 = ORIENTED_EDGE ( 'NONE', *, *, #263, .F. ) ;
#11 = CIRCLE ( 'NONE', #227, 0.1999999999999996503 ) ;
#12 = APPROVAL_ROLE ( '' ) ;
#13 = EDGE_LOOP ( 'NONE', ( #108, #270, #65, #130 ) ) ;
#14 = UNCERTAINTY_MEASURE_WITH_UNIT (LENGTH_MEASURE( 1.000000000000000082E-05 ), #249, 'distance_accuracy_value', 'NONE');
#15 = DIRECTION ( 'NONE',  ( 0.000000000000000000, 0.000000000000000000, 1.000000000000000000 ) ) ;
#16 = VERTEX_POINT ( 'NONE', #60 ) ;
#17 = CC_DESIGN_PERSON_AND_ORGANIZATION_ASSIGNMENT ( #32, #30, ( #230 ) ) ;
#18 = CARTESIAN_POINT ( 'NONE',  ( 0.000000000000000000, 0.000000000000000000, 5.000000000000000000 ) ) ;
#19 = PLANE ( 'NONE',  #291 ) ;
#20 = EDGE_LOOP ( 'NONE', ( #272, #277 ) ) ;
#21 = CARTESIAN_POINT ( 'NONE',  ( 0.000000000000000000, 0.000000000000000000, 5.000000000000000000 ) ) ;
#22 = CARTESIAN_POINT ( 'NONE',  ( 0.000000000000000000, 0.000000000000000000, 0.000000000000000000 ) ) ;
#23 = DIRECTION ( 'NONE',  ( 1.000000000000000000, 0.000000000000000000, 0.000000000000000000 ) ) ;
#24 = ADVANCED_BREP_SHAPE_REPRESENTATION ( '0932', ( #129, #157 ), #136 ) ;
#25 = APPROVAL_PERSON_ORGANIZATION ( #245, #259, #74 ) ;
#26 = DIRECTION ( 'NONE',  ( 1.000000000000000000, 0.000000000000000000, -0.000000000000000000 ) ) ;
#27 = CARTESIAN_POINT ( 'NONE',  ( 3.299999999999999822, 0.000000000000000000, 5.199999999999982414 ) ) ;
#28 = AXIS2_PLACEMENT_3D ( 'NONE', #132, #262, #26 ) ;
#29 = EDGE_CURVE ( 'NONE', #16, #82, #77, .T. ) ;
#30 = PERSON_AND_ORGANIZATION_ROLE ( 'creator' ) ;
#31 = DATE_TIME_ROLE ( 'creation_date' ) ;
#32 = PERSON_AND_ORGANIZATION ( #90, #187 ) ;
#33 = CIRCLE ( 'NONE', #96, 3.299999999999999822 ) ;
#34 = CALENDAR_DATE ( 2022, 7, 7 ) ;
#35 = ORIENTED_EDGE ( 'NONE', *, *, #121, .T. ) ;
#36 = CC_DESIGN_APPROVAL ( #201, ( #64 ) ) ;
#37 = CARTESIAN_POINT ( 'NONE',  ( 0.000000000000000000, 0.000000000000000000, 5.000000000000000000 ) ) ;
#38 = CIRCLE ( 'NONE', #210, 6.000000000000000888 ) ;
#39 = FACE_OUTER_BOUND ( 'NONE', #57, .T. ) ;
#40 = VERTEX_POINT ( 'NONE', #207 ) ;
#41 = FACE_OUTER_BOUND ( 'NONE', #180, .T. ) ;
#42 = EDGE_LOOP ( 'NONE', ( #10, #56, #35, #258 ) ) ;
#43 = DIRECTION ( 'NONE',  ( -0.000000000000000000, -0.000000000000000000, -1.000000000000000000 ) ) ;
#44 = ADVANCED_FACE ( 'NONE', ( #228 ), #256, .F. ) ;
#45 = DIRECTION ( 'NONE',  ( 1.000000000000000000, 0.000000000000000000, 0.000000000000000000 ) ) ;
#46 = CARTESIAN_POINT ( 'NONE',  ( 3.100000000000000089, 3.796405077356794918E-16, 805.0000000000000000 ) ) ;
#47 = AXIS2_PLACEMENT_3D ( 'NONE', #211, #113, #2 ) ;
#48 = ADVANCED_FACE ( 'NONE', ( #229 ), #19, .F. ) ;
#49 = DIRECTION ( 'NONE',  ( 0.000000000000000000, 0.000000000000000000, 1.000000000000000000 ) ) ;
#50 = AXIS2_PLACEMENT_3D ( 'NONE', #159, #83, #153 ) ;
#51 = CARTESIAN_POINT ( 'NONE',  ( 6.000000000000000888, 7.347880794884120722E-16, 0.000000000000000000 ) ) ;
#52 = APPROVAL_STATUS ( 'not_yet_approved' ) ;
#53 = ORIENTED_EDGE ( 'NONE', *, *, #179, .T. ) ;
#54 = EDGE_CURVE ( 'NONE', #260, #168, #276, .T. ) ;
#55 = DATE_AND_TIME ( #222, #202 ) ;
#56 = ORIENTED_EDGE ( 'NONE', *, *, #111, .F. ) ;
#57 = EDGE_LOOP ( 'NONE', ( #150, #78 ) ) ;
#58 = DATE_AND_TIME ( #267, #71 ) ;
#59 = EDGE_LOOP ( 'NONE', ( #232, #293, #170, #296 ) ) ;
#60 = CARTESIAN_POINT ( 'NONE',  ( -6.000000000000000888, 0.000000000000000000, 5.000000000000000000 ) ) ;
#61 = AXIS2_PLACEMENT_3D ( 'NONE', #22, #238, #216 ) ;
#62 = DIRECTION ( 'NONE',  ( 0.000000000000000000, 0.000000000000000000, 1.000000000000000000 ) ) ;
#63 = ORIENTED_EDGE ( 'NONE', *, *, #255, .T. ) ;
#64 = SECURITY_CLASSIFICATION ( '', '', #220 ) ;
#65 = ORIENTED_EDGE ( 'NONE', *, *, #162, .T. ) ;
#66 = DIRECTION ( 'NONE',  ( -0.000000000000000000, -0.000000000000000000, -1.000000000000000000 ) ) ;
#67 = CARTESIAN_POINT ( 'NONE',  ( 0.000000000000000000, 0.000000000000000000, 5.000000000000000000 ) ) ;
#68 = DIRECTION ( 'NONE',  ( 1.000000000000000000, 0.000000000000000000, 0.000000000000000000 ) ) ;
#69 = DIRECTION ( 'NONE',  ( 0.000000000000000000, 0.000000000000000000, 1.000000000000000000 ) ) ;
#70 = DIRECTION ( 'NONE',  ( 1.000000000000000000, 0.000000000000000000, 0.000000000000000000 ) ) ;
#71 = LOCAL_TIME ( 12, 10, 14.00000000000000000, #100 ) ;
#72 = ADVANCED_FACE ( 'NONE', ( #273 ), #196, .F. ) ;
#73 = DIRECTION ( 'NONE',  ( 1.000000000000000000, 0.000000000000000000, 0.000000000000000000 ) ) ;
#74 = APPROVAL_ROLE ( '' ) ;
#75 = APPLICATION_CONTEXT ( 'configuration controlled 3d designs of mechanical parts and assemblies' ) ;
#76 = COORDINATED_UNIVERSAL_TIME_OFFSET ( 1, 0, .AHEAD. ) ;
#77 = CIRCLE ( 'NONE', #149, 6.000000000000000888 ) ;
#78 = ORIENTED_EDGE ( 'NONE', *, *, #181, .T. ) ;
#79 = ORIENTED_EDGE ( 'NONE', *, *, #304, .T. ) ;
#80 = VECTOR ( 'NONE', #261, 1000.000000000000000 ) ;
#81 = CARTESIAN_POINT ( 'NONE',  ( 0.000000000000000000, 0.000000000000000000, 5.199999999999982414 ) ) ;
#82 = VERTEX_POINT ( 'NONE', #85 ) ;
#83 = DIRECTION ( 'NONE',  ( 0.000000000000000000, 0.000000000000000000, 1.000000000000000000 ) ) ;
#84 = CARTESIAN_POINT ( 'NONE',  ( 0.000000000000000000, 0.000000000000000000, 0.000000000000000000 ) ) ;
#85 = CARTESIAN_POINT ( 'NONE',  ( 6.000000000000000888, 7.347880794884120722E-16, 5.000000000000000000 ) ) ;
#86 = DIRECTION ( 'NONE',  ( -1.000000000000000000, 0.000000000000000000, 0.000000000000000000 ) ) ;
#87 = DIRECTION ( 'NONE',  ( 1.000000000000000000, 0.000000000000000000, 0.000000000000000000 ) ) ;
#88 = DIRECTION ( 'NONE',  ( 1.000000000000000000, 0.000000000000000000, 0.000000000000000000 ) ) ;
#89 = PRODUCT_RELATED_PRODUCT_CATEGORY ( 'detail', '', ( #92 ) ) ;
#90 = PERSON ( 'NEURÈENÝ', 'NEURÈENÝ', 'NEURÈENÝ', ('NEURÈENÝ'), ('NEURÈENÝ'), ('NEURÈENÝ') ) ;
#91 = CARTESIAN_POINT ( 'NONE',  ( 0.000000000000000000, 0.000000000000000000, 5.000000000000000000 ) ) ;
#92 = PRODUCT ( '0932', '0932', '', ( #94 ) ) ;
#93 = CARTESIAN_POINT ( 'NONE',  ( -3.100000000000000089, 0.000000000000000000, 805.0000000000000000 ) ) ;
#94 = MECHANICAL_CONTEXT ( 'NONE', #75, 'mechanical' ) ;
#95 = APPROVAL_STATUS ( 'not_yet_approved' ) ;
#96 = AXIS2_PLACEMENT_3D ( 'NONE', #67, #112, #45 ) ;
#97 = COORDINATED_UNIVERSAL_TIME_OFFSET ( 1, 0, .AHEAD. ) ;
#98 = VERTEX_POINT ( 'NONE', #279 ) ;
#99 = ADVANCED_FACE ( 'NONE', ( #103, #39 ), #204, .T. ) ;
#100 = COORDINATED_UNIVERSAL_TIME_OFFSET ( 1, 0, .AHEAD. ) ;
#101 = DESIGN_CONTEXT ( 'detailed design', #288, 'design' ) ;
#102 = CARTESIAN_POINT ( 'NONE',  ( 0.000000000000000000, 0.000000000000000000, 805.0000000000000000 ) ) ;
#103 = FACE_BOUND ( 'NONE', #158, .T. ) ;
#104 = ORIENTED_EDGE ( 'NONE', *, *, #173, .F. ) ;
#105 = VECTOR ( 'NONE', #164, 1000.000000000000000 ) ;
#106 = DIRECTION ( 'NONE',  ( -0.000000000000000000, -0.000000000000000000, -1.000000000000000000 ) ) ;
#107 = AXIS2_PLACEMENT_3D ( 'NONE', #257, #161, #88 ) ;
#108 = ORIENTED_EDGE ( 'NONE', *, *, #185, .F. ) ;
#109 = DIRECTION ( 'NONE',  ( 0.000000000000000000, 0.000000000000000000, 1.000000000000000000 ) ) ;
#110 = DIRECTION ( 'NONE',  ( 0.000000000000000000, 0.000000000000000000, -1.000000000000000000 ) ) ;
#111 = EDGE_CURVE ( 'NONE', #98, #176, #128, .T. ) ;
#112 = DIRECTION ( 'NONE',  ( -0.000000000000000000, -0.000000000000000000, -1.000000000000000000 ) ) ;
#113 = DIRECTION ( 'NONE',  ( 1.224646799147353207E-16, 1.000000000000000000, -0.000000000000000000 ) ) ;
#114 = DIRECTION ( 'NONE',  ( -0.000000000000000000, -0.000000000000000000, -1.000000000000000000 ) ) ;
#115 = ADVANCED_FACE ( 'NONE', ( #307 ), #237, .T. ) ;
#116 = PERSON_AND_ORGANIZATION_ROLE ( 'design_supplier' ) ;
#117 = LOCAL_TIME ( 12, 10, 14.00000000000000000, #76 ) ;
#118 = PERSON_AND_ORGANIZATION_ROLE ( 'classification_officer' ) ;
#119 = PERSON_AND_ORGANIZATION ( #90, #187 ) ;
#120 = COORDINATED_UNIVERSAL_TIME_OFFSET ( 1, 0, .AHEAD. ) ;
#121 = EDGE_CURVE ( 'NONE', #98, #40, #11, .T. ) ;
#122 = LOCAL_TIME ( 12, 10, 14.00000000000000000, #120 ) ;
#123 = PRODUCT_DEFINITION ( 'NEZNÁMÝ', '', #230, #101 ) ;
#124 = SHAPE_DEFINITION_REPRESENTATION ( #192, #24 ) ;
#125 = DIRECTION ( 'NONE',  ( 1.000000000000000000, 0.000000000000000000, 0.000000000000000000 ) ) ;
#126 = AXIS2_PLACEMENT_3D ( 'NONE', #21, #49, #87 ) ;
#127 = CYLINDRICAL_SURFACE ( 'NONE', #212, 6.000000000000000888 ) ;
#128 = CIRCLE ( 'NONE', #107, 3.100000000000000089 ) ;
#129 = MANIFOLD_SOLID_BREP ( 'Zaoblit1', #171 ) ;
#130 = ORIENTED_EDGE ( 'NONE', *, *, #214, .T. ) ;
#131 = DIRECTION ( 'NONE',  ( 1.000000000000000000, 0.000000000000000000, 0.000000000000000000 ) ) ;
#132 = CARTESIAN_POINT ( 'NONE',  ( 0.000000000000000000, 0.000000000000000000, 805.0000000000000000 ) ) ;
#133 = CC_DESIGN_PERSON_AND_ORGANIZATION_ASSIGNMENT ( #197, #116, ( #230 ) ) ;
#134 = CARTESIAN_POINT ( 'NONE',  ( 3.100000000000000089, 3.796405077356794918E-16, 805.0000000000000000 ) ) ;
#135 = FACE_OUTER_BOUND ( 'NONE', #224, .T. ) ;
#136 =( GEOMETRIC_REPRESENTATION_CONTEXT ( 3 ) GLOBAL_UNCERTAINTY_ASSIGNED_CONTEXT ( ( #14 ) ) GLOBAL_UNIT_ASSIGNED_CONTEXT ( ( #249, #199, #174 ) ) REPRESENTATION_CONTEXT ( 'NONE', 'WORKASPACE' ) );
#137 = AXIS2_PLACEMENT_3D ( 'NONE', #81, #15, #275 ) ;
#138 = CARTESIAN_POINT ( 'NONE',  ( -6.000000000000000888, 0.000000000000000000, 0.000000000000000000 ) ) ;
#139 = CYLINDRICAL_SURFACE ( 'NONE', #306, 3.100000000000000089 ) ;
#140 = ADVANCED_FACE ( 'NONE', ( #163 ), #139, .T. ) ;
#141 = CIRCLE ( 'NONE', #61, 6.000000000000000888 ) ;
#142 = CALENDAR_DATE ( 2022, 7, 7 ) ;
#143 = ORIENTED_EDGE ( 'NONE', *, *, #7, .T. ) ;
#144 = DATE_AND_TIME ( #142, #122 ) ;
#145 = EDGE_CURVE ( 'NONE', #168, #260, #160, .T. ) ;
#146 = DATE_AND_TIME ( #268, #117 ) ;
#147 = APPLICATION_PROTOCOL_DEFINITION ( 'international standard', 'config_control_design', 1994, #288 ) ;
#148 = PERSON_AND_ORGANIZATION_ROLE ( 'creator' ) ;
#149 = AXIS2_PLACEMENT_3D ( 'NONE', #18, #208, #125 ) ;
#150 = ORIENTED_EDGE ( 'NONE', *, *, #29, .T. ) ;
#151 = CARTESIAN_POINT ( 'NONE',  ( 0.000000000000000000, 0.000000000000000000, 5.000000000000000000 ) ) ;
#152 = ORIENTED_EDGE ( 'NONE', *, *, #121, .F. ) ;
#153 = DIRECTION ( 'NONE',  ( 1.000000000000000000, 0.000000000000000000, -0.000000000000000000 ) ) ;
#154 = AXIS2_PLACEMENT_3D ( 'NONE', #37, #178, #274 ) ;
#155 = APPROVAL ( #52, 'NEURÈENÝ' ) ;
#156 = APPROVAL_DATE_TIME ( #146, #201 ) ;
#157 = AXIS2_PLACEMENT_3D ( 'NONE', #223, #247, #73 ) ;
#158 = EDGE_LOOP ( 'NONE', ( #143, #63 ) ) ;
#159 = CARTESIAN_POINT ( 'NONE',  ( 0.000000000000000000, 0.000000000000000000, 5.000000000000000000 ) ) ;
#160 = CIRCLE ( 'NONE', #284, 3.100000000000000089 ) ;
#161 = DIRECTION ( 'NONE',  ( 0.000000000000000000, 0.000000000000000000, 1.000000000000000000 ) ) ;
#162 = EDGE_CURVE ( 'NONE', #168, #176, #165, .T. ) ;
#163 = FACE_OUTER_BOUND ( 'NONE', #13, .T. ) ;
#164 = DIRECTION ( 'NONE',  ( -0.000000000000000000, -0.000000000000000000, -1.000000000000000000 ) ) ;
#165 = LINE ( 'NONE', #93, #105 ) ;
#166 = CARTESIAN_POINT ( 'NONE',  ( -3.100000000000000089, 0.000000000000000000, 805.0000000000000000 ) ) ;
#167 = DATE_AND_TIME ( #34, #198 ) ;
#168 = VERTEX_POINT ( 'NONE', #166 ) ;
#169 = CIRCLE ( 'NONE', #47, 0.2000000000000000944 ) ;
#170 = ORIENTED_EDGE ( 'NONE', *, *, #242, .T. ) ;
#171 = CLOSED_SHELL ( 'NONE', ( #44, #115, #294, #3, #99, #48, #140, #191, #72 ) ) ;
#172 = PERSON_AND_ORGANIZATION ( #90, #187 ) ;
#173 = EDGE_CURVE ( 'NONE', #82, #221, #280, .T. ) ;
#174 =( NAMED_UNIT ( * ) SI_UNIT ( $, .STERADIAN. ) SOLID_ANGLE_UNIT ( ) );
#175 = ORIENTED_EDGE ( 'NONE', *, *, #263, .T. ) ;
#176 = VERTEX_POINT ( 'NONE', #265 ) ;
#177 = DIRECTION ( 'NONE',  ( 1.000000000000000000, 0.000000000000000000, 0.000000000000000000 ) ) ;
#178 = DIRECTION ( 'NONE',  ( -0.000000000000000000, -0.000000000000000000, -1.000000000000000000 ) ) ;
#179 = EDGE_CURVE ( 'NONE', #16, #195, #183, .T. ) ;
#180 = EDGE_LOOP ( 'NONE', ( #104, #200, #53, #79 ) ) ;
#181 = EDGE_CURVE ( 'NONE', #82, #16, #193, .T. ) ;
#182 = CARTESIAN_POINT ( 'NONE',  ( 0.000000000000000000, 0.000000000000000000, 5.199999999999982414 ) ) ;
#183 = LINE ( 'NONE', #186, #266 ) ;
#184 = PLANE ( 'NONE',  #28 ) ;
#185 = EDGE_CURVE ( 'NONE', #260, #98, #282, .T. ) ;
#186 = CARTESIAN_POINT ( 'NONE',  ( -6.000000000000000888, 0.000000000000000000, 5.000000000000000000 ) ) ;
#187 = ORGANIZATION ( 'NEURÈENÝ', 'NEURÈENÝ', '' ) ;
#188 = DIRECTION ( 'NONE',  ( -0.000000000000000000, -0.000000000000000000, -1.000000000000000000 ) ) ;
#189 = CYLINDRICAL_SURFACE ( 'NONE', #206, 6.000000000000000888 ) ;
#190 = PERSON_AND_ORGANIZATION ( #90, #187 ) ;
#191 = ADVANCED_FACE ( 'NONE', ( #135 ), #184, .T. ) ;
#192 = PRODUCT_DEFINITION_SHAPE ( 'NONE', 'NONE',  #123 ) ;
#193 = CIRCLE ( 'NONE', #126, 6.000000000000000888 ) ;
#194 = PERSON_AND_ORGANIZATION ( #90, #187 ) ;
#195 = VERTEX_POINT ( 'NONE', #138 ) ;
#196 = TOROIDAL_SURFACE ( 'NONE', #248, 3.299999999999999822, 0.2000000000000000111 ) ;
#197 = PERSON_AND_ORGANIZATION ( #90, #187 ) ;
#198 = LOCAL_TIME ( 12, 10, 14.00000000000000000, #97 ) ;
#199 =( NAMED_UNIT ( * ) PLANE_ANGLE_UNIT ( ) SI_UNIT ( $, .RADIAN. ) );
#200 = ORIENTED_EDGE ( 'NONE', *, *, #29, .F. ) ;
#201 = APPROVAL ( #95, 'NEURÈENÝ' ) ;
#202 = LOCAL_TIME ( 12, 10, 14.00000000000000000, #5 ) ;
#203 = CC_DESIGN_PERSON_AND_ORGANIZATION_ASSIGNMENT ( #172, #118, ( #64 ) ) ;
#204 = PLANE ( 'NONE',  #50 ) ;
#205 = EDGE_LOOP ( 'NONE', ( #290, #175, #298, #152 ) ) ;
#206 = AXIS2_PLACEMENT_3D ( 'NONE', #91, #188, #285 ) ;
#207 = CARTESIAN_POINT ( 'NONE',  ( 3.299999999999999822, 0.000000000000000000, 4.999999999999991118 ) ) ;
#208 = DIRECTION ( 'NONE',  ( 0.000000000000000000, 0.000000000000000000, 1.000000000000000000 ) ) ;
#209 = DIRECTION ( 'NONE',  ( -1.000000000000000000, 0.000000000000000000, 0.000000000000000000 ) ) ;
#210 = AXIS2_PLACEMENT_3D ( 'NONE', #283, #69, #70 ) ;
#211 = CARTESIAN_POINT ( 'NONE',  ( -3.299999999999999822, 4.041334437186265510E-16, 5.199999999999982414 ) ) ;
#212 = AXIS2_PLACEMENT_3D ( 'NONE', #151, #106, #231 ) ;
#213 = DIRECTION ( 'NONE',  ( 0.000000000000000000, 0.000000000000000000, 1.000000000000000000 ) ) ;
#214 = EDGE_CURVE ( 'NONE', #176, #98, #240, .T. ) ;
#215 = AXIS2_PLACEMENT_3D ( 'NONE', #239, #43, #209 ) ;
#216 = DIRECTION ( 'NONE',  ( 1.000000000000000000, 0.000000000000000000, 0.000000000000000000 ) ) ;
#217 = VECTOR ( 'NONE', #264, 1000.000000000000000 ) ;
#218 = APPROVAL_STATUS ( 'not_yet_approved' ) ;
#219 = CC_DESIGN_DATE_AND_TIME_ASSIGNMENT ( #55, #8, ( #64 ) ) ;
#220 = SECURITY_CLASSIFICATION_LEVEL ( 'unclassified' ) ;
#221 = VERTEX_POINT ( 'NONE', #51 ) ;
#222 = CALENDAR_DATE ( 2022, 7, 7 ) ;
#223 = CARTESIAN_POINT ( 'NONE',  ( 0.000000000000000000, 0.000000000000000000, 0.000000000000000000 ) ) ;
#224 = EDGE_LOOP ( 'NONE', ( #250, #295 ) ) ;
#225 = PERSON_AND_ORGANIZATION_ROLE ( 'design_owner' ) ;
#226 = EDGE_LOOP ( 'NONE', ( #233, #287, #292, #269 ) ) ;
#227 = AXIS2_PLACEMENT_3D ( 'NONE', #27, #281, #110 ) ;
#228 = FACE_OUTER_BOUND ( 'NONE', #205, .T. ) ;
#229 = FACE_OUTER_BOUND ( 'NONE', #20, .T. ) ;
#230 = PRODUCT_DEFINITION_FORMATION_WITH_SPECIFIED_SOURCE ( 'LIBOVOLNÝ', '', #92, .NOT_KNOWN. ) ;
#231 = DIRECTION ( 'NONE',  ( -1.000000000000000000, 0.000000000000000000, 0.000000000000000000 ) ) ;
#232 = ORIENTED_EDGE ( 'NONE', *, *, #181, .F. ) ;
#233 = ORIENTED_EDGE ( 'NONE', *, *, #54, .F. ) ;
#234 = CARTESIAN_POINT ( 'NONE',  ( 0.000000000000000000, 0.000000000000000000, 5.199999999999982414 ) ) ;
#235 = CARTESIAN_POINT ( 'NONE',  ( 6.000000000000000888, 7.347880794884120722E-16, 5.000000000000000000 ) ) ;
#236 = AXIS2_PLACEMENT_3D ( 'NONE', #234, #109, #68 ) ;
#237 = CYLINDRICAL_SURFACE ( 'NONE', #215, 3.100000000000000089 ) ;
#238 = DIRECTION ( 'NONE',  ( 0.000000000000000000, 0.000000000000000000, 1.000000000000000000 ) ) ;
#239 = CARTESIAN_POINT ( 'NONE',  ( 0.000000000000000000, 0.000000000000000000, 805.0000000000000000 ) ) ;
#240 = CIRCLE ( 'NONE', #236, 3.100000000000000089 ) ;
#241 = APPROVAL_DATE_TIME ( #144, #155 ) ;
#242 = EDGE_CURVE ( 'NONE', #221, #195, #141, .T. ) ;
#243 = CC_DESIGN_APPROVAL ( #259, ( #123 ) ) ;
#244 = CC_DESIGN_APPROVAL ( #155, ( #230 ) ) ;
#245 = PERSON_AND_ORGANIZATION ( #90, #187 ) ;
#246 = CC_DESIGN_DATE_AND_TIME_ASSIGNMENT ( #167, #31, ( #123 ) ) ;
#247 = DIRECTION ( 'NONE',  ( 0.000000000000000000, 0.000000000000000000, 1.000000000000000000 ) ) ;
#248 = AXIS2_PLACEMENT_3D ( 'NONE', #182, #254, #131 ) ;
#249 =( LENGTH_UNIT ( ) NAMED_UNIT ( * ) SI_UNIT ( .MILLI., .METRE. ) );
#250 = ORIENTED_EDGE ( 'NONE', *, *, #145, .T. ) ;
#251 = CC_DESIGN_SECURITY_CLASSIFICATION ( #64, ( #230 ) ) ;
#252 = CARTESIAN_POINT ( 'NONE',  ( -3.299999999999999822, 4.041334437186265510E-16, 4.999999999999991118 ) ) ;
#253 = CC_DESIGN_PERSON_AND_ORGANIZATION_ASSIGNMENT ( #271, #225, ( #92 ) ) ;
#254 = DIRECTION ( 'NONE',  ( 0.000000000000000000, 0.000000000000000000, 1.000000000000000000 ) ) ;
#255 = EDGE_CURVE ( 'NONE', #6, #40, #33, .T. ) ;
#256 = TOROIDAL_SURFACE ( 'NONE', #137, 3.299999999999999822, 0.2000000000000000111 ) ;
#257 = CARTESIAN_POINT ( 'NONE',  ( 0.000000000000000000, 0.000000000000000000, 5.199999999999982414 ) ) ;
#258 = ORIENTED_EDGE ( 'NONE', *, *, #255, .F. ) ;
#259 = APPROVAL ( #218, 'NEURÈENÝ' ) ;
#260 = VERTEX_POINT ( 'NONE', #134 ) ;
#261 = DIRECTION ( 'NONE',  ( -0.000000000000000000, -0.000000000000000000, -1.000000000000000000 ) ) ;
#262 = DIRECTION ( 'NONE',  ( 0.000000000000000000, 0.000000000000000000, 1.000000000000000000 ) ) ;
#263 = EDGE_CURVE ( 'NONE', #176, #6, #169, .T. ) ;
#264 = DIRECTION ( 'NONE',  ( -0.000000000000000000, -0.000000000000000000, -1.000000000000000000 ) ) ;
#265 = CARTESIAN_POINT ( 'NONE',  ( -3.100000000000000089, 0.000000000000000000, 5.199999999999982414 ) ) ;
#266 = VECTOR ( 'NONE', #66, 1000.000000000000000 ) ;
#267 = CALENDAR_DATE ( 2022, 7, 7 ) ;
#268 = CALENDAR_DATE ( 2022, 7, 7 ) ;
#269 = ORIENTED_EDGE ( 'NONE', *, *, #162, .F. ) ;
#270 = ORIENTED_EDGE ( 'NONE', *, *, #145, .F. ) ;
#271 = PERSON_AND_ORGANIZATION ( #90, #187 ) ;
#272 = ORIENTED_EDGE ( 'NONE', *, *, #304, .F. ) ;
#273 = FACE_OUTER_BOUND ( 'NONE', #42, .T. ) ;
#274 = DIRECTION ( 'NONE',  ( 1.000000000000000000, 0.000000000000000000, 0.000000000000000000 ) ) ;
#275 = DIRECTION ( 'NONE',  ( 1.000000000000000000, 0.000000000000000000, 0.000000000000000000 ) ) ;
#276 = CIRCLE ( 'NONE', #301, 3.100000000000000089 ) ;
#277 = ORIENTED_EDGE ( 'NONE', *, *, #242, .F. ) ;
#278 = APPROVAL_PERSON_ORGANIZATION ( #194, #201, #289 ) ;
#279 = CARTESIAN_POINT ( 'NONE',  ( 3.100000000000000089, 3.796405077356794918E-16, 5.199999999999982414 ) ) ;
#280 = LINE ( 'NONE', #235, #217 ) ;
#281 = DIRECTION ( 'NONE',  ( 0.000000000000000000, -1.000000000000000000, 0.000000000000000000 ) ) ;
#282 = LINE ( 'NONE', #46, #80 ) ;
#283 = CARTESIAN_POINT ( 'NONE',  ( 0.000000000000000000, 0.000000000000000000, 0.000000000000000000 ) ) ;
#284 = AXIS2_PLACEMENT_3D ( 'NONE', #303, #213, #23 ) ;
#285 = DIRECTION ( 'NONE',  ( -1.000000000000000000, 0.000000000000000000, 0.000000000000000000 ) ) ;
#286 = CIRCLE ( 'NONE', #154, 3.299999999999999822 ) ;
#287 = ORIENTED_EDGE ( 'NONE', *, *, #185, .T. ) ;
#288 = APPLICATION_CONTEXT ( 'configuration controlled 3d designs of mechanical parts and assemblies' ) ;
#289 = APPROVAL_ROLE ( '' ) ;
#290 = ORIENTED_EDGE ( 'NONE', *, *, #214, .F. ) ;
#291 = AXIS2_PLACEMENT_3D ( 'NONE', #84, #299, #302 ) ;
#292 = ORIENTED_EDGE ( 'NONE', *, *, #111, .T. ) ;
#293 = ORIENTED_EDGE ( 'NONE', *, *, #173, .T. ) ;
#294 = ADVANCED_FACE ( 'NONE', ( #1 ), #189, .T. ) ;
#295 = ORIENTED_EDGE ( 'NONE', *, *, #54, .T. ) ;
#296 = ORIENTED_EDGE ( 'NONE', *, *, #179, .F. ) ;
#297 = APPROVAL_PERSON_ORGANIZATION ( #190, #155, #12 ) ;
#298 = ORIENTED_EDGE ( 'NONE', *, *, #7, .F. ) ;
#299 = DIRECTION ( 'NONE',  ( 0.000000000000000000, 0.000000000000000000, 1.000000000000000000 ) ) ;
#300 = CC_DESIGN_PERSON_AND_ORGANIZATION_ASSIGNMENT ( #119, #148, ( #123 ) ) ;
#301 = AXIS2_PLACEMENT_3D ( 'NONE', #102, #62, #177 ) ;
#302 = DIRECTION ( 'NONE',  ( 1.000000000000000000, 0.000000000000000000, -0.000000000000000000 ) ) ;
#303 = CARTESIAN_POINT ( 'NONE',  ( 0.000000000000000000, 0.000000000000000000, 805.0000000000000000 ) ) ;
#304 = EDGE_CURVE ( 'NONE', #195, #221, #38, .T. ) ;
#305 = CARTESIAN_POINT ( 'NONE',  ( 0.000000000000000000, 0.000000000000000000, 805.0000000000000000 ) ) ;
#306 = AXIS2_PLACEMENT_3D ( 'NONE', #305, #114, #86 ) ;
#307 = FACE_OUTER_BOUND ( 'NONE', #226, .T. ) ;
ENDSEC;
END-ISO-10303-21;
