ISO-10303-21;
HEADER;
FILE_DESCRIPTION (( 'STEP AP203' ),
    '1' );
FILE_NAME ('23fb.STEP',
    '2022-07-07T10:12:58',
    ( '' ),
    ( '' ),
    'SwSTEP 2.0',
    'SolidWorks 2019',
    '' );
FILE_SCHEMA (( 'CONFIG_CONTROL_DESIGN' ));
ENDSEC;

DATA;
#1 = COORDINATED_UNIVERSAL_TIME_OFFSET ( 1, 0, .AHEAD. ) ;
#2 = ORIENTED_EDGE ( 'NONE', *, *, #93, .F. ) ;
#3 = PRODUCT_DEFINITION ( 'NEZNÁMÝ', '', #283, #85 ) ;
#4 = DIRECTION ( 'NONE',  ( 0.000000000000000000, 0.000000000000000000, 1.000000000000000000 ) ) ;
#5 = CALENDAR_DATE ( 2022, 7, 7 ) ;
#6 = FACE_OUTER_BOUND ( 'NONE', #280, .T. ) ;
#7 = CARTESIAN_POINT ( 'NONE',  ( 3.200000000000000622, 0.000000000000000000, 5.199999999999982414 ) ) ;
#8 = APPROVAL_STATUS ( 'not_yet_approved' ) ;
#9 = ORIENTED_EDGE ( 'NONE', *, *, #110, .F. ) ;
#10 = EDGE_CURVE ( 'NONE', #120, #143, #212, .T. ) ;
#11 = CYLINDRICAL_SURFACE ( 'NONE', #24, 6.000000000000000888 ) ;
#12 = CARTESIAN_POINT ( 'NONE',  ( 0.000000000000000000, 0.000000000000000000, 0.000000000000000000 ) ) ;
#13 = LINE ( 'NONE', #92, #133 ) ;
#14 = PERSON_AND_ORGANIZATION ( #64, #91 ) ;
#15 =( GEOMETRIC_REPRESENTATION_CONTEXT ( 3 ) GLOBAL_UNCERTAINTY_ASSIGNED_CONTEXT ( ( #169 ) ) GLOBAL_UNIT_ASSIGNED_CONTEXT ( ( #96, #54, #187 ) ) REPRESENTATION_CONTEXT ( 'NONE', 'WORKASPACE' ) );
#16 = EDGE_CURVE ( 'NONE', #239, #32, #40, .T. ) ;
#17 = EDGE_LOOP ( 'NONE', ( #217, #29, #261, #211 ) ) ;
#18 = ORIENTED_EDGE ( 'NONE', *, *, #257, .T. ) ;
#19 = MANIFOLD_SOLID_BREP ( 'Zaoblit1', #176 ) ;
#20 = DIRECTION ( 'NONE',  ( -0.000000000000000000, -0.000000000000000000, -1.000000000000000000 ) ) ;
#21 = CARTESIAN_POINT ( 'NONE',  ( 0.000000000000000000, 0.000000000000000000, 5.000000000000000000 ) ) ;
#22 = EDGE_LOOP ( 'NONE', ( #166, #183, #302, #135 ) ) ;
#23 = AXIS2_PLACEMENT_3D ( 'NONE', #106, #50, #56 ) ;
#24 = AXIS2_PLACEMENT_3D ( 'NONE', #151, #63, #171 ) ;
#25 = CIRCLE ( 'NONE', #154, 3.000000000000000444 ) ;
#26 = ADVANCED_FACE ( 'NONE', ( #139 ), #262, .F. ) ;
#27 = PERSON_AND_ORGANIZATION ( #64, #91 ) ;
#28 = LINE ( 'NONE', #141, #203 ) ;
#29 = ORIENTED_EDGE ( 'NONE', *, *, #114, .F. ) ;
#30 = DIRECTION ( 'NONE',  ( 1.000000000000000000, 0.000000000000000000, -0.000000000000000000 ) ) ;
#31 = MECHANICAL_CONTEXT ( 'NONE', #180, 'mechanical' ) ;
#32 = VERTEX_POINT ( 'NONE', #221 ) ;
#33 = EDGE_CURVE ( 'NONE', #137, #68, #199, .T. ) ;
#34 = AXIS2_PLACEMENT_3D ( 'NONE', #46, #123, #163 ) ;
#35 = DIRECTION ( 'NONE',  ( 0.000000000000000000, 0.000000000000000000, 1.000000000000000000 ) ) ;
#36 = DATE_AND_TIME ( #175, #60 ) ;
#37 = CYLINDRICAL_SURFACE ( 'NONE', #231, 3.000000000000000444 ) ;
#38 = FACE_OUTER_BOUND ( 'NONE', #161, .T. ) ;
#39 = EDGE_CURVE ( 'NONE', #120, #239, #28, .T. ) ;
#40 = CIRCLE ( 'NONE', #23, 3.000000000000000444 ) ;
#41 = CIRCLE ( 'NONE', #55, 3.200000000000000622 ) ;
#42 = VERTEX_POINT ( 'NONE', #52 ) ;
#43 = SECURITY_CLASSIFICATION ( '', '', #230 ) ;
#44 = APPLICATION_PROTOCOL_DEFINITION ( 'international standard', 'config_control_design', 1994, #180 ) ;
#45 = CC_DESIGN_PERSON_AND_ORGANIZATION_ASSIGNMENT ( #14, #58, ( #43 ) ) ;
#46 = CARTESIAN_POINT ( 'NONE',  ( 0.000000000000000000, 0.000000000000000000, 0.000000000000000000 ) ) ;
#47 = EDGE_LOOP ( 'NONE', ( #127, #86 ) ) ;
#48 = ADVANCED_FACE ( 'NONE', ( #244, #6 ), #103, .T. ) ;
#49 = DIRECTION ( 'NONE',  ( 0.000000000000000000, 0.000000000000000000, 1.000000000000000000 ) ) ;
#50 = DIRECTION ( 'NONE',  ( 0.000000000000000000, 0.000000000000000000, 1.000000000000000000 ) ) ;
#51 = DIRECTION ( 'NONE',  ( 0.000000000000000000, 0.000000000000000000, 1.000000000000000000 ) ) ;
#52 = CARTESIAN_POINT ( 'NONE',  ( -3.200000000000000622, 3.918869757271530953E-16, 4.999999999999991118 ) ) ;
#53 = CARTESIAN_POINT ( 'NONE',  ( 0.000000000000000000, 0.000000000000000000, 5.000000000000000000 ) ) ;
#54 =( NAMED_UNIT ( * ) PLANE_ANGLE_UNIT ( ) SI_UNIT ( $, .RADIAN. ) );
#55 = AXIS2_PLACEMENT_3D ( 'NONE', #21, #263, #140 ) ;
#56 = DIRECTION ( 'NONE',  ( 1.000000000000000000, 0.000000000000000000, 0.000000000000000000 ) ) ;
#57 = DIRECTION ( 'NONE',  ( -1.000000000000000000, 1.224646799147353207E-16, 0.000000000000000000 ) ) ;
#58 = PERSON_AND_ORGANIZATION_ROLE ( 'classification_officer' ) ;
#59 = FACE_OUTER_BOUND ( 'NONE', #17, .T. ) ;
#60 = LOCAL_TIME ( 12, 12, 58.00000000000000000, #228 ) ;
#61 = FACE_OUTER_BOUND ( 'NONE', #188, .T. ) ;
#62 = APPROVAL_ROLE ( '' ) ;
#63 = DIRECTION ( 'NONE',  ( -0.000000000000000000, -0.000000000000000000, -1.000000000000000000 ) ) ;
#64 = PERSON ( 'NEURÈENÝ', 'NEURÈENÝ', 'NEURÈENÝ', ('NEURÈENÝ'), ('NEURÈENÝ'), ('NEURÈENÝ') ) ;
#65 = PRODUCT_DEFINITION_SHAPE ( 'NONE', 'NONE',  #3 ) ;
#66 = ADVANCED_FACE ( 'NONE', ( #59 ), #259, .T. ) ;
#67 = PRODUCT ( '23fb', '23fb', '', ( #31 ) ) ;
#68 = VERTEX_POINT ( 'NONE', #266 ) ;
#69 = APPROVAL_STATUS ( 'not_yet_approved' ) ;
#70 = APPROVAL ( #8, 'NEURÈENÝ' ) ;
#71 = EDGE_LOOP ( 'NONE', ( #99, #246 ) ) ;
#72 = APPROVAL_DATE_TIME ( #190, #253 ) ;
#73 = EDGE_CURVE ( 'NONE', #32, #146, #138, .T. ) ;
#74 = CARTESIAN_POINT ( 'NONE',  ( 0.000000000000000000, 0.000000000000000000, 505.0000000000000000 ) ) ;
#75 = PERSON_AND_ORGANIZATION_ROLE ( 'creator' ) ;
#76 = AXIS2_PLACEMENT_3D ( 'NONE', #167, #299, #229 ) ;
#77 = DIRECTION ( 'NONE',  ( 1.000000000000000000, 0.000000000000000000, 0.000000000000000000 ) ) ;
#78 = AXIS2_PLACEMENT_3D ( 'NONE', #173, #170, #271 ) ;
#79 = LOCAL_TIME ( 12, 12, 58.00000000000000000, #132 ) ;
#80 = CARTESIAN_POINT ( 'NONE',  ( 0.000000000000000000, 0.000000000000000000, 505.0000000000000000 ) ) ;
#81 = APPLICATION_PROTOCOL_DEFINITION ( 'international standard', 'config_control_design', 1994, #282 ) ;
#82 = DIRECTION ( 'NONE',  ( -0.000000000000000000, -0.000000000000000000, -1.000000000000000000 ) ) ;
#83 = DIRECTION ( 'NONE',  ( 1.224646799147353207E-16, 1.000000000000000000, -0.000000000000000000 ) ) ;
#84 = DATE_TIME_ROLE ( 'classification_date' ) ;
#85 = DESIGN_CONTEXT ( 'detailed design', #282, 'design' ) ;
#86 = ORIENTED_EDGE ( 'NONE', *, *, #297, .T. ) ;
#87 = DIRECTION ( 'NONE',  ( 1.000000000000000000, 0.000000000000000000, 0.000000000000000000 ) ) ;
#88 = DATE_AND_TIME ( #270, #264 ) ;
#89 = CC_DESIGN_DATE_AND_TIME_ASSIGNMENT ( #36, #84, ( #43 ) ) ;
#90 = AXIS2_PLACEMENT_3D ( 'NONE', #191, #286, #77 ) ;
#91 = ORGANIZATION ( 'NEURÈENÝ', 'NEURÈENÝ', '' ) ;
#92 = CARTESIAN_POINT ( 'NONE',  ( 3.000000000000000444, 3.673940397442060361E-16, 505.0000000000000000 ) ) ;
#93 = EDGE_CURVE ( 'NONE', #143, #32, #13, .T. ) ;
#94 = VERTEX_POINT ( 'NONE', #107 ) ;
#95 = ADVANCED_FACE ( 'NONE', ( #131 ), #181, .F. ) ;
#96 =( LENGTH_UNIT ( ) NAMED_UNIT ( * ) SI_UNIT ( .MILLI., .METRE. ) );
#97 = APPROVAL_PERSON_ORGANIZATION ( #248, #277, #62 ) ;
#98 = ORIENTED_EDGE ( 'NONE', *, *, #252, .F. ) ;
#99 = ORIENTED_EDGE ( 'NONE', *, *, #214, .F. ) ;
#100 = CARTESIAN_POINT ( 'NONE',  ( 0.000000000000000000, 0.000000000000000000, 505.0000000000000000 ) ) ;
#101 = ORIENTED_EDGE ( 'NONE', *, *, #155, .F. ) ;
#102 = DATE_AND_TIME ( #5, #205 ) ;
#103 = PLANE ( 'NONE',  #78 ) ;
#104 = CARTESIAN_POINT ( 'NONE',  ( -6.000000000000000888, 0.000000000000000000, 5.000000000000000000 ) ) ;
#105 = APPROVAL_ROLE ( '' ) ;
#106 = CARTESIAN_POINT ( 'NONE',  ( 0.000000000000000000, 0.000000000000000000, 5.199999999999982414 ) ) ;
#107 = CARTESIAN_POINT ( 'NONE',  ( -6.000000000000000888, 0.000000000000000000, 5.000000000000000000 ) ) ;
#108 = APPROVAL_DATE_TIME ( #88, #70 ) ;
#109 = DIRECTION ( 'NONE',  ( 0.000000000000000000, 0.000000000000000000, 1.000000000000000000 ) ) ;
#110 = EDGE_CURVE ( 'NONE', #94, #159, #112, .T. ) ;
#111 = VECTOR ( 'NONE', #295, 1000.000000000000000 ) ;
#112 = LINE ( 'NONE', #104, #111 ) ;
#113 = LOCAL_TIME ( 12, 12, 58.00000000000000000, #1 ) ;
#114 = EDGE_CURVE ( 'NONE', #94, #137, #287, .T. ) ;
#115 = AXIS2_PLACEMENT_3D ( 'NONE', #128, #226, #174 ) ;
#116 = PERSON_AND_ORGANIZATION_ROLE ( 'design_owner' ) ;
#117 = EDGE_LOOP ( 'NONE', ( #305, #255, #18, #9 ) ) ;
#118 = DIRECTION ( 'NONE',  ( 1.000000000000000000, 0.000000000000000000, 0.000000000000000000 ) ) ;
#119 = ORIENTED_EDGE ( 'NONE', *, *, #297, .F. ) ;
#120 = VERTEX_POINT ( 'NONE', #193 ) ;
#121 = DIRECTION ( 'NONE',  ( -0.000000000000000000, -0.000000000000000000, -1.000000000000000000 ) ) ;
#122 = ORIENTED_EDGE ( 'NONE', *, *, #189, .T. ) ;
#123 = DIRECTION ( 'NONE',  ( 0.000000000000000000, 0.000000000000000000, 1.000000000000000000 ) ) ;
#124 = DIRECTION ( 'NONE',  ( 0.000000000000000000, 0.000000000000000000, 1.000000000000000000 ) ) ;
#125 = PLANE ( 'NONE',  #278 ) ;
#126 = PERSON_AND_ORGANIZATION ( #64, #91 ) ;
#127 = ORIENTED_EDGE ( 'NONE', *, *, #237, .T. ) ;
#128 = CARTESIAN_POINT ( 'NONE',  ( 0.000000000000000000, 0.000000000000000000, 5.199999999999982414 ) ) ;
#129 = CC_DESIGN_PERSON_AND_ORGANIZATION_ASSIGNMENT ( #223, #116, ( #67 ) ) ;
#130 = DIRECTION ( 'NONE',  ( -0.000000000000000000, -0.000000000000000000, -1.000000000000000000 ) ) ;
#131 = FACE_OUTER_BOUND ( 'NONE', #219, .T. ) ;
#132 = COORDINATED_UNIVERSAL_TIME_OFFSET ( 1, 0, .AHEAD. ) ;
#133 = VECTOR ( 'NONE', #222, 1000.000000000000000 ) ;
#134 = APPROVAL_PERSON_ORGANIZATION ( #27, #253, #260 ) ;
#135 = ORIENTED_EDGE ( 'NONE', *, *, #73, .F. ) ;
#136 = DIRECTION ( 'NONE',  ( 0.000000000000000000, 0.000000000000000000, 1.000000000000000000 ) ) ;
#137 = VERTEX_POINT ( 'NONE', #142 ) ;
#138 = CIRCLE ( 'NONE', #240, 0.1999999999999996503 ) ;
#139 = FACE_OUTER_BOUND ( 'NONE', #22, .T. ) ;
#140 = DIRECTION ( 'NONE',  ( 1.000000000000000000, 0.000000000000000000, 0.000000000000000000 ) ) ;
#141 = CARTESIAN_POINT ( 'NONE',  ( -3.000000000000000444, 0.000000000000000000, 505.0000000000000000 ) ) ;
#142 = CARTESIAN_POINT ( 'NONE',  ( 6.000000000000000888, 7.347880794884120722E-16, 5.000000000000000000 ) ) ;
#143 = VERTEX_POINT ( 'NONE', #197 ) ;
#144 = AXIS2_PLACEMENT_3D ( 'NONE', #238, #51, #160 ) ;
#145 = DIRECTION ( 'NONE',  ( 1.000000000000000000, 0.000000000000000000, 0.000000000000000000 ) ) ;
#146 = VERTEX_POINT ( 'NONE', #149 ) ;
#147 = AXIS2_PLACEMENT_3D ( 'NONE', #289, #4, #145 ) ;
#148 = AXIS2_PLACEMENT_3D ( 'NONE', #303, #136, #241 ) ;
#149 = CARTESIAN_POINT ( 'NONE',  ( 3.200000000000000622, 0.000000000000000000, 4.999999999999991118 ) ) ;
#150 = CALENDAR_DATE ( 2022, 7, 7 ) ;
#151 = CARTESIAN_POINT ( 'NONE',  ( 0.000000000000000000, 0.000000000000000000, 5.000000000000000000 ) ) ;
#152 = APPROVAL_STATUS ( 'not_yet_approved' ) ;
#153 = PERSON_AND_ORGANIZATION_ROLE ( 'creator' ) ;
#154 = AXIS2_PLACEMENT_3D ( 'NONE', #100, #49, #118 ) ;
#155 = EDGE_CURVE ( 'NONE', #239, #42, #210, .T. ) ;
#156 = AXIS2_PLACEMENT_3D ( 'NONE', #53, #272, #245 ) ;
#157 = CC_DESIGN_PERSON_AND_ORGANIZATION_ASSIGNMENT ( #285, #75, ( #3 ) ) ;
#158 = AXIS2_PLACEMENT_3D ( 'NONE', #12, #109, #298 ) ;
#159 = VERTEX_POINT ( 'NONE', #202 ) ;
#160 = DIRECTION ( 'NONE',  ( 1.000000000000000000, 0.000000000000000000, -0.000000000000000000 ) ) ;
#161 = EDGE_LOOP ( 'NONE', ( #268, #234 ) ) ;
#162 = PRODUCT_RELATED_PRODUCT_CATEGORY ( 'detail', '', ( #67 ) ) ;
#163 = DIRECTION ( 'NONE',  ( 1.000000000000000000, 0.000000000000000000, 0.000000000000000000 ) ) ;
#164 = DIRECTION ( 'NONE',  ( 1.000000000000000000, 0.000000000000000000, 0.000000000000000000 ) ) ;
#165 = ADVANCED_FACE ( 'NONE', ( #38 ), #125, .T. ) ;
#166 = ORIENTED_EDGE ( 'NONE', *, *, #16, .F. ) ;
#167 = CARTESIAN_POINT ( 'NONE',  ( 0.000000000000000000, 0.000000000000000000, 5.000000000000000000 ) ) ;
#168 = CALENDAR_DATE ( 2022, 7, 7 ) ;
#169 = UNCERTAINTY_MEASURE_WITH_UNIT (LENGTH_MEASURE( 1.000000000000000082E-05 ), #96, 'distance_accuracy_value', 'NONE');
#170 = DIRECTION ( 'NONE',  ( 0.000000000000000000, 0.000000000000000000, 1.000000000000000000 ) ) ;
#171 = DIRECTION ( 'NONE',  ( -1.000000000000000000, 0.000000000000000000, 0.000000000000000000 ) ) ;
#172 = ADVANCED_FACE ( 'NONE', ( #293 ), #11, .T. ) ;
#173 = CARTESIAN_POINT ( 'NONE',  ( 0.000000000000000000, 0.000000000000000000, 5.000000000000000000 ) ) ;
#174 = DIRECTION ( 'NONE',  ( 1.000000000000000000, 0.000000000000000000, 0.000000000000000000 ) ) ;
#175 = CALENDAR_DATE ( 2022, 7, 7 ) ;
#176 = CLOSED_SHELL ( 'NONE', ( #26, #208, #172, #66, #48, #233, #279, #165, #95 ) ) ;
#177 = CIRCLE ( 'NONE', #115, 3.000000000000000444 ) ;
#178 = CARTESIAN_POINT ( 'NONE',  ( 0.000000000000000000, 0.000000000000000000, 505.0000000000000000 ) ) ;
#179 = CC_DESIGN_APPROVAL ( #70, ( #283 ) ) ;
#180 = APPLICATION_CONTEXT ( 'configuration controlled 3d designs of mechanical parts and assemblies' ) ;
#181 = TOROIDAL_SURFACE ( 'NONE', #147, 3.200000000000000622, 0.2000000000000000111 ) ;
#182 = CC_DESIGN_SECURITY_CLASSIFICATION ( #43, ( #283 ) ) ;
#183 = ORIENTED_EDGE ( 'NONE', *, *, #155, .T. ) ;
#184 = ADVANCED_BREP_SHAPE_REPRESENTATION ( '23fb', ( #19, #34 ), #15 ) ;
#185 = AXIS2_PLACEMENT_3D ( 'NONE', #74, #124, #164 ) ;
#186 = CIRCLE ( 'NONE', #148, 6.000000000000000888 ) ;
#187 =( NAMED_UNIT ( * ) SI_UNIT ( $, .STERADIAN. ) SOLID_ANGLE_UNIT ( ) );
#188 = EDGE_LOOP ( 'NONE', ( #98, #294, #236, #218 ) ) ;
#189 = EDGE_CURVE ( 'NONE', #137, #94, #300, .T. ) ;
#190 = DATE_AND_TIME ( #168, #113 ) ;
#191 = CARTESIAN_POINT ( 'NONE',  ( 0.000000000000000000, 0.000000000000000000, 5.199999999999982414 ) ) ;
#192 = CC_DESIGN_PERSON_AND_ORGANIZATION_ASSIGNMENT ( #276, #273, ( #283 ) ) ;
#193 = CARTESIAN_POINT ( 'NONE',  ( -3.000000000000000444, 0.000000000000000000, 505.0000000000000000 ) ) ;
#194 = DIRECTION ( 'NONE',  ( 1.000000000000000000, 0.000000000000000000, 0.000000000000000000 ) ) ;
#195 = ORIENTED_EDGE ( 'NONE', *, *, #39, .T. ) ;
#196 = EDGE_CURVE ( 'NONE', #32, #239, #177, .T. ) ;
#197 = CARTESIAN_POINT ( 'NONE',  ( 3.000000000000000444, 3.673940397442060361E-16, 505.0000000000000000 ) ) ;
#198 = CARTESIAN_POINT ( 'NONE',  ( -3.000000000000000444, 0.000000000000000000, 5.199999999999982414 ) ) ;
#199 = LINE ( 'NONE', #265, #209 ) ;
#200 = DIRECTION ( 'NONE',  ( 0.000000000000000000, -1.000000000000000000, 0.000000000000000000 ) ) ;
#201 = DATE_AND_TIME ( #150, #79 ) ;
#202 = CARTESIAN_POINT ( 'NONE',  ( -6.000000000000000888, 0.000000000000000000, 0.000000000000000000 ) ) ;
#203 = VECTOR ( 'NONE', #82, 1000.000000000000000 ) ;
#204 = CIRCLE ( 'NONE', #158, 6.000000000000000888 ) ;
#205 = LOCAL_TIME ( 12, 12, 58.00000000000000000, #220 ) ;
#206 = CARTESIAN_POINT ( 'NONE',  ( -3.200000000000000622, 3.918869757271530953E-16, 5.199999999999982414 ) ) ;
#207 = AXIS2_PLACEMENT_3D ( 'NONE', #243, #121, #194 ) ;
#208 = ADVANCED_FACE ( 'NONE', ( #61 ), #37, .T. ) ;
#209 = VECTOR ( 'NONE', #291, 1000.000000000000000 ) ;
#210 = CIRCLE ( 'NONE', #213, 0.2000000000000000944 ) ;
#211 = ORIENTED_EDGE ( 'NONE', *, *, #214, .T. ) ;
#212 = CIRCLE ( 'NONE', #185, 3.000000000000000444 ) ;
#213 = AXIS2_PLACEMENT_3D ( 'NONE', #206, #83, #57 ) ;
#214 = EDGE_CURVE ( 'NONE', #159, #68, #204, .T. ) ;
#215 = CARTESIAN_POINT ( 'NONE',  ( 0.000000000000000000, 0.000000000000000000, 505.0000000000000000 ) ) ;
#216 = CC_DESIGN_APPROVAL ( #277, ( #43 ) ) ;
#217 = ORIENTED_EDGE ( 'NONE', *, *, #33, .F. ) ;
#218 = ORIENTED_EDGE ( 'NONE', *, *, #39, .F. ) ;
#219 = EDGE_LOOP ( 'NONE', ( #101, #242, #254, #119 ) ) ;
#220 = COORDINATED_UNIVERSAL_TIME_OFFSET ( 1, 0, .AHEAD. ) ;
#221 = CARTESIAN_POINT ( 'NONE',  ( 3.000000000000000444, 3.673940397442060361E-16, 5.199999999999982414 ) ) ;
#222 = DIRECTION ( 'NONE',  ( -0.000000000000000000, -0.000000000000000000, -1.000000000000000000 ) ) ;
#223 = PERSON_AND_ORGANIZATION ( #64, #91 ) ;
#224 = ORIENTED_EDGE ( 'NONE', *, *, #114, .T. ) ;
#225 = APPROVAL_PERSON_ORGANIZATION ( #126, #70, #105 ) ;
#226 = DIRECTION ( 'NONE',  ( 0.000000000000000000, 0.000000000000000000, 1.000000000000000000 ) ) ;
#227 = DIRECTION ( 'NONE',  ( -1.000000000000000000, 0.000000000000000000, 0.000000000000000000 ) ) ;
#228 = COORDINATED_UNIVERSAL_TIME_OFFSET ( 1, 0, .AHEAD. ) ;
#229 = DIRECTION ( 'NONE',  ( -1.000000000000000000, 0.000000000000000000, 0.000000000000000000 ) ) ;
#230 = SECURITY_CLASSIFICATION_LEVEL ( 'unclassified' ) ;
#231 = AXIS2_PLACEMENT_3D ( 'NONE', #178, #130, #227 ) ;
#232 = PERSON_AND_ORGANIZATION ( #64, #91 ) ;
#233 = ADVANCED_FACE ( 'NONE', ( #274 ), #250, .F. ) ;
#234 = ORIENTED_EDGE ( 'NONE', *, *, #252, .T. ) ;
#235 = AXIS2_PLACEMENT_3D ( 'NONE', #215, #20, #258 ) ;
#236 = ORIENTED_EDGE ( 'NONE', *, *, #196, .T. ) ;
#237 = EDGE_CURVE ( 'NONE', #146, #42, #41, .T. ) ;
#238 = CARTESIAN_POINT ( 'NONE',  ( 0.000000000000000000, 0.000000000000000000, 0.000000000000000000 ) ) ;
#239 = VERTEX_POINT ( 'NONE', #198 ) ;
#240 = AXIS2_PLACEMENT_3D ( 'NONE', #7, #200, #247 ) ;
#241 = DIRECTION ( 'NONE',  ( 1.000000000000000000, 0.000000000000000000, 0.000000000000000000 ) ) ;
#242 = ORIENTED_EDGE ( 'NONE', *, *, #196, .F. ) ;
#243 = CARTESIAN_POINT ( 'NONE',  ( 0.000000000000000000, 0.000000000000000000, 5.000000000000000000 ) ) ;
#244 = FACE_BOUND ( 'NONE', #47, .T. ) ;
#245 = DIRECTION ( 'NONE',  ( 1.000000000000000000, 0.000000000000000000, 0.000000000000000000 ) ) ;
#246 = ORIENTED_EDGE ( 'NONE', *, *, #257, .F. ) ;
#247 = DIRECTION ( 'NONE',  ( 0.000000000000000000, 0.000000000000000000, -1.000000000000000000 ) ) ;
#248 = PERSON_AND_ORGANIZATION ( #64, #91 ) ;
#249 = DIRECTION ( 'NONE',  ( 0.000000000000000000, 0.000000000000000000, 1.000000000000000000 ) ) ;
#250 = PLANE ( 'NONE',  #144 ) ;
#251 = SHAPE_DEFINITION_REPRESENTATION ( #65, #184 ) ;
#252 = EDGE_CURVE ( 'NONE', #143, #120, #25, .T. ) ;
#253 = APPROVAL ( #69, 'NEURÈENÝ' ) ;
#254 = ORIENTED_EDGE ( 'NONE', *, *, #73, .T. ) ;
#255 = ORIENTED_EDGE ( 'NONE', *, *, #33, .T. ) ;
#256 = CYLINDRICAL_SURFACE ( 'NONE', #235, 3.000000000000000444 ) ;
#257 = EDGE_CURVE ( 'NONE', #68, #159, #186, .T. ) ;
#258 = DIRECTION ( 'NONE',  ( -1.000000000000000000, 0.000000000000000000, 0.000000000000000000 ) ) ;
#259 = CYLINDRICAL_SURFACE ( 'NONE', #76, 6.000000000000000888 ) ;
#260 = APPROVAL_ROLE ( '' ) ;
#261 = ORIENTED_EDGE ( 'NONE', *, *, #110, .T. ) ;
#262 = TOROIDAL_SURFACE ( 'NONE', #90, 3.200000000000000622, 0.2000000000000000111 ) ;
#263 = DIRECTION ( 'NONE',  ( -0.000000000000000000, -0.000000000000000000, -1.000000000000000000 ) ) ;
#264 = LOCAL_TIME ( 12, 12, 58.00000000000000000, #275 ) ;
#265 = CARTESIAN_POINT ( 'NONE',  ( 6.000000000000000888, 7.347880794884120722E-16, 5.000000000000000000 ) ) ;
#266 = CARTESIAN_POINT ( 'NONE',  ( 6.000000000000000888, 7.347880794884120722E-16, 0.000000000000000000 ) ) ;
#267 = DATE_TIME_ROLE ( 'creation_date' ) ;
#268 = ORIENTED_EDGE ( 'NONE', *, *, #10, .T. ) ;
#269 = CARTESIAN_POINT ( 'NONE',  ( 0.000000000000000000, 0.000000000000000000, 5.000000000000000000 ) ) ;
#270 = CALENDAR_DATE ( 2022, 7, 7 ) ;
#271 = DIRECTION ( 'NONE',  ( 1.000000000000000000, 0.000000000000000000, -0.000000000000000000 ) ) ;
#272 = DIRECTION ( 'NONE',  ( 0.000000000000000000, 0.000000000000000000, 1.000000000000000000 ) ) ;
#273 = PERSON_AND_ORGANIZATION_ROLE ( 'design_supplier' ) ;
#274 = FACE_OUTER_BOUND ( 'NONE', #71, .T. ) ;
#275 = COORDINATED_UNIVERSAL_TIME_OFFSET ( 1, 0, .AHEAD. ) ;
#276 = PERSON_AND_ORGANIZATION ( #64, #91 ) ;
#277 = APPROVAL ( #152, 'NEURÈENÝ' ) ;
#278 = AXIS2_PLACEMENT_3D ( 'NONE', #80, #35, #30 ) ;
#279 = ADVANCED_FACE ( 'NONE', ( #290 ), #256, .T. ) ;
#280 = EDGE_LOOP ( 'NONE', ( #224, #122 ) ) ;
#281 = EDGE_LOOP ( 'NONE', ( #2, #284, #195, #307 ) ) ;
#282 = APPLICATION_CONTEXT ( 'configuration controlled 3d designs of mechanical parts and assemblies' ) ;
#283 = PRODUCT_DEFINITION_FORMATION_WITH_SPECIFIED_SOURCE ( 'LIBOVOLNÝ', '', #67, .NOT_KNOWN. ) ;
#284 = ORIENTED_EDGE ( 'NONE', *, *, #10, .F. ) ;
#285 = PERSON_AND_ORGANIZATION ( #64, #91 ) ;
#286 = DIRECTION ( 'NONE',  ( 0.000000000000000000, 0.000000000000000000, 1.000000000000000000 ) ) ;
#287 = CIRCLE ( 'NONE', #156, 6.000000000000000888 ) ;
#288 = CC_DESIGN_APPROVAL ( #253, ( #3 ) ) ;
#289 = CARTESIAN_POINT ( 'NONE',  ( 0.000000000000000000, 0.000000000000000000, 5.199999999999982414 ) ) ;
#290 = FACE_OUTER_BOUND ( 'NONE', #281, .T. ) ;
#291 = DIRECTION ( 'NONE',  ( -0.000000000000000000, -0.000000000000000000, -1.000000000000000000 ) ) ;
#292 = CC_DESIGN_DATE_AND_TIME_ASSIGNMENT ( #102, #267, ( #3 ) ) ;
#293 = FACE_OUTER_BOUND ( 'NONE', #117, .T. ) ;
#294 = ORIENTED_EDGE ( 'NONE', *, *, #93, .T. ) ;
#295 = DIRECTION ( 'NONE',  ( -0.000000000000000000, -0.000000000000000000, -1.000000000000000000 ) ) ;
#296 = APPROVAL_DATE_TIME ( #201, #277 ) ;
#297 = EDGE_CURVE ( 'NONE', #42, #146, #306, .T. ) ;
#298 = DIRECTION ( 'NONE',  ( 1.000000000000000000, 0.000000000000000000, 0.000000000000000000 ) ) ;
#299 = DIRECTION ( 'NONE',  ( -0.000000000000000000, -0.000000000000000000, -1.000000000000000000 ) ) ;
#300 = CIRCLE ( 'NONE', #304, 6.000000000000000888 ) ;
#301 = CC_DESIGN_PERSON_AND_ORGANIZATION_ASSIGNMENT ( #232, #153, ( #283 ) ) ;
#302 = ORIENTED_EDGE ( 'NONE', *, *, #237, .F. ) ;
#303 = CARTESIAN_POINT ( 'NONE',  ( 0.000000000000000000, 0.000000000000000000, 0.000000000000000000 ) ) ;
#304 = AXIS2_PLACEMENT_3D ( 'NONE', #269, #249, #87 ) ;
#305 = ORIENTED_EDGE ( 'NONE', *, *, #189, .F. ) ;
#306 = CIRCLE ( 'NONE', #207, 3.200000000000000622 ) ;
#307 = ORIENTED_EDGE ( 'NONE', *, *, #16, .T. ) ;
ENDSEC;
END-ISO-10303-21;
