ISO-10303-21;
HEADER;
FILE_DESCRIPTION (( 'STEP AP203' ),
    '1' );
FILE_NAME ('e9bc.STEP',
    '2022-07-07T10:21:43',
    ( '' ),
    ( '' ),
    'SwSTEP 2.0',
    'SolidWorks 2019',
    '' );
FILE_SCHEMA (( 'CONFIG_CONTROL_DESIGN' ));
ENDSEC;

DATA;
#1 = EDGE_CURVE ( 'NONE', #9, #190, #82, .T. ) ;
#2 = AXIS2_PLACEMENT_3D ( 'NONE', #152, #25, #242 ) ;
#3 = FACE_OUTER_BOUND ( 'NONE', #217, .T. ) ;
#4 = DIRECTION ( 'NONE',  ( 1.000000000000000000, 0.000000000000000000, 0.000000000000000000 ) ) ;
#5 = FACE_OUTER_BOUND ( 'NONE', #294, .T. ) ;
#6 = CALENDAR_DATE ( 2022, 7, 7 ) ;
#7 = AXIS2_PLACEMENT_3D ( 'NONE', #175, #201, #290 ) ;
#8 = PERSON_AND_ORGANIZATION ( #265, #109 ) ;
#9 = VERTEX_POINT ( 'NONE', #193 ) ;
#10 = ADVANCED_FACE ( 'NONE', ( #69 ), #223, .F. ) ;
#11 = APPROVAL_STATUS ( 'not_yet_approved' ) ;
#12 = AXIS2_PLACEMENT_3D ( 'NONE', #220, #145, #148 ) ;
#13 = EDGE_LOOP ( 'NONE', ( #275, #229, #257, #296 ) ) ;
#14 = PERSON_AND_ORGANIZATION_ROLE ( 'classification_officer' ) ;
#15 = APPROVAL ( #11, 'NEURÈENÝ' ) ;
#16 = DIRECTION ( 'NONE',  ( -0.000000000000000000, -0.000000000000000000, -1.000000000000000000 ) ) ;
#17 = ORIENTED_EDGE ( 'NONE', *, *, #1, .T. ) ;
#18 = AXIS2_PLACEMENT_3D ( 'NONE', #198, #51, #49 ) ;
#19 = ORIENTED_EDGE ( 'NONE', *, *, #98, .T. ) ;
#20 = APPROVAL ( #32, 'NEURÈENÝ' ) ;
#21 = DIRECTION ( 'NONE',  ( -0.000000000000000000, -0.000000000000000000, -1.000000000000000000 ) ) ;
#22 = CARTESIAN_POINT ( 'NONE',  ( 0.000000000000000000, 0.000000000000000000, 3.000000000000000000 ) ) ;
#23 = VECTOR ( 'NONE', #143, 1000.000000000000000 ) ;
#24 = CIRCLE ( 'NONE', #292, 2.250000000000000000 ) ;
#25 = DIRECTION ( 'NONE',  ( 0.000000000000000000, 0.000000000000000000, 1.000000000000000000 ) ) ;
#26 = EDGE_CURVE ( 'NONE', #190, #9, #286, .T. ) ;
#27 = DIRECTION ( 'NONE',  ( 1.000000000000000000, 0.000000000000000000, 0.000000000000000000 ) ) ;
#28 = CARTESIAN_POINT ( 'NONE',  ( 2.250000000000000000, 2.755455298081544285E-16, 253.0000000000000000 ) ) ;
#29 = DIRECTION ( 'NONE',  ( -1.000000000000000000, 0.000000000000000000, 0.000000000000000000 ) ) ;
#30 = EDGE_CURVE ( 'NONE', #93, #9, #40, .T. ) ;
#31 = CARTESIAN_POINT ( 'NONE',  ( 2.250000000000000000, 2.755455298081544285E-16, 3.200000000000008171 ) ) ;
#32 = APPROVAL_STATUS ( 'not_yet_approved' ) ;
#33 = AXIS2_PLACEMENT_3D ( 'NONE', #129, #76, #29 ) ;
#34 = ADVANCED_FACE ( 'NONE', ( #233 ), #72, .T. ) ;
#35 = ORIENTED_EDGE ( 'NONE', *, *, #71, .F. ) ;
#36 = PERSON_AND_ORGANIZATION ( #265, #109 ) ;
#37 = ORIENTED_EDGE ( 'NONE', *, *, #248, .T. ) ;
#38 = EDGE_CURVE ( 'NONE', #107, #136, #278, .T. ) ;
#39 = SECURITY_CLASSIFICATION_LEVEL ( 'unclassified' ) ;
#40 = LINE ( 'NONE', #171, #23 ) ;
#41 = DIRECTION ( 'NONE',  ( -0.000000000000000000, -0.000000000000000000, -1.000000000000000000 ) ) ;
#42 = PRODUCT ( 'e9bc', 'e9bc', '', ( #205 ) ) ;
#43 = CARTESIAN_POINT ( 'NONE',  ( 0.000000000000000000, 0.000000000000000000, 3.200000000000008171 ) ) ;
#44 = AXIS2_PLACEMENT_3D ( 'NONE', #195, #283, #74 ) ;
#45 = ADVANCED_FACE ( 'NONE', ( #279 ), #260, .T. ) ;
#46 = ORIENTED_EDGE ( 'NONE', *, *, #90, .T. ) ;
#47 = LOCAL_TIME ( 12, 21, 43.00000000000000000, #204 ) ;
#48 = CARTESIAN_POINT ( 'NONE',  ( 4.000000000000000000, 4.898587196589412829E-16, 3.000000000000000000 ) ) ;
#49 = DIRECTION ( 'NONE',  ( 1.000000000000000000, 0.000000000000000000, -0.000000000000000000 ) ) ;
#50 = CIRCLE ( 'NONE', #94, 0.2000000000000000944 ) ;
#51 = DIRECTION ( 'NONE',  ( 0.000000000000000000, 0.000000000000000000, 1.000000000000000000 ) ) ;
#52 =( NAMED_UNIT ( * ) PLANE_ANGLE_UNIT ( ) SI_UNIT ( $, .RADIAN. ) );
#53 = APPROVAL_PERSON_ORGANIZATION ( #158, #20, #134 ) ;
#54 = DIRECTION ( 'NONE',  ( 1.224646799147353207E-16, 1.000000000000000000, -0.000000000000000000 ) ) ;
#55 = CC_DESIGN_DATE_AND_TIME_ASSIGNMENT ( #83, #209, ( #79 ) ) ;
#56 = FACE_OUTER_BOUND ( 'NONE', #119, .T. ) ;
#57 = APPROVAL_ROLE ( '' ) ;
#58 = CC_DESIGN_PERSON_AND_ORGANIZATION_ASSIGNMENT ( #141, #14, ( #208 ) ) ;
#59 = DATE_AND_TIME ( #84, #271 ) ;
#60 = ORIENTED_EDGE ( 'NONE', *, *, #71, .T. ) ;
#61 = COORDINATED_UNIVERSAL_TIME_OFFSET ( 1, 0, .AHEAD. ) ;
#62 = AXIS2_PLACEMENT_3D ( 'NONE', #268, #263, #285 ) ;
#63 = ORIENTED_EDGE ( 'NONE', *, *, #138, .F. ) ;
#64 = LOCAL_TIME ( 12, 21, 43.00000000000000000, #252 ) ;
#65 = PERSON_AND_ORGANIZATION ( #265, #109 ) ;
#66 = ORIENTED_EDGE ( 'NONE', *, *, #26, .F. ) ;
#67 = CARTESIAN_POINT ( 'NONE',  ( -2.449999999999999734, 3.000384657911015370E-16, 3.000000000000004441 ) ) ;
#68 = VECTOR ( 'NONE', #269, 1000.000000000000000 ) ;
#69 = FACE_OUTER_BOUND ( 'NONE', #253, .T. ) ;
#70 = LOCAL_TIME ( 12, 21, 43.00000000000000000, #189 ) ;
#71 = EDGE_CURVE ( 'NONE', #96, #159, #112, .T. ) ;
#72 = CYLINDRICAL_SURFACE ( 'NONE', #272, 4.000000000000000000 ) ;
#73 = DIRECTION ( 'NONE',  ( -1.000000000000000000, 0.000000000000000000, 0.000000000000000000 ) ) ;
#74 = DIRECTION ( 'NONE',  ( 1.000000000000000000, 0.000000000000000000, 0.000000000000000000 ) ) ;
#75 = DIRECTION ( 'NONE',  ( -1.000000000000000000, 1.224646799147353207E-16, 0.000000000000000000 ) ) ;
#76 = DIRECTION ( 'NONE',  ( -0.000000000000000000, -0.000000000000000000, -1.000000000000000000 ) ) ;
#77 = CARTESIAN_POINT ( 'NONE',  ( 0.000000000000000000, 0.000000000000000000, 253.0000000000000000 ) ) ;
#78 = CARTESIAN_POINT ( 'NONE',  ( -2.449999999999999734, 3.000384657911015370E-16, 3.200000000000008171 ) ) ;
#79 = PRODUCT_DEFINITION ( 'NEZNÁMÝ', '', #115, #203 ) ;
#80 = AXIS2_PLACEMENT_3D ( 'NONE', #114, #106, #295 ) ;
#81 = PLANE ( 'NONE',  #126 ) ;
#82 = CIRCLE ( 'NONE', #240, 4.000000000000000000 ) ;
#83 = DATE_AND_TIME ( #6, #64 ) ;
#84 = CALENDAR_DATE ( 2022, 7, 7 ) ;
#85 = ORIENTED_EDGE ( 'NONE', *, *, #30, .T. ) ;
#86 = SHAPE_DEFINITION_REPRESENTATION ( #303, #280 ) ;
#87 = VERTEX_POINT ( 'NONE', #258 ) ;
#88 = ORIENTED_EDGE ( 'NONE', *, *, #98, .F. ) ;
#89 = PERSON_AND_ORGANIZATION_ROLE ( 'design_owner' ) ;
#90 = EDGE_CURVE ( 'NONE', #96, #87, #301, .T. ) ;
#91 = ORIENTED_EDGE ( 'NONE', *, *, #132, .T. ) ;
#92 = AXIS2_PLACEMENT_3D ( 'NONE', #215, #41, #172 ) ;
#93 = VERTEX_POINT ( 'NONE', #48 ) ;
#94 = AXIS2_PLACEMENT_3D ( 'NONE', #241, #177, #157 ) ;
#95 = ORIENTED_EDGE ( 'NONE', *, *, #30, .F. ) ;
#96 = VERTEX_POINT ( 'NONE', #170 ) ;
#97 = CARTESIAN_POINT ( 'NONE',  ( 0.000000000000000000, 0.000000000000000000, 3.000000000000000000 ) ) ;
#98 = EDGE_CURVE ( 'NONE', #93, #188, #130, .T. ) ;
#99 = DIRECTION ( 'NONE',  ( 1.000000000000000000, 0.000000000000000000, -0.000000000000000000 ) ) ;
#100 = DIRECTION ( 'NONE',  ( 0.000000000000000000, 0.000000000000000000, 1.000000000000000000 ) ) ;
#101 =( LENGTH_UNIT ( ) NAMED_UNIT ( * ) SI_UNIT ( .MILLI., .METRE. ) );
#102 = ADVANCED_FACE ( 'NONE', ( #121, #151 ), #239, .T. ) ;
#103 = CYLINDRICAL_SURFACE ( 'NONE', #33, 2.250000000000000000 ) ;
#104 = DIRECTION ( 'NONE',  ( 0.000000000000000000, 0.000000000000000000, 1.000000000000000000 ) ) ;
#105 = DIRECTION ( 'NONE',  ( -0.000000000000000000, -0.000000000000000000, -1.000000000000000000 ) ) ;
#106 = DIRECTION ( 'NONE',  ( 0.000000000000000000, 0.000000000000000000, 1.000000000000000000 ) ) ;
#107 = VERTEX_POINT ( 'NONE', #67 ) ;
#108 = PERSON_AND_ORGANIZATION_ROLE ( 'creator' ) ;
#109 = ORGANIZATION ( 'NEURÈENÝ', 'NEURÈENÝ', '' ) ;
#110 =( NAMED_UNIT ( * ) SI_UNIT ( $, .STERADIAN. ) SOLID_ANGLE_UNIT ( ) );
#111 = EDGE_LOOP ( 'NONE', ( #66, #192 ) ) ;
#112 = CIRCLE ( 'NONE', #44, 2.250000000000000000 ) ;
#113 = EDGE_CURVE ( 'NONE', #136, #107, #178, .T. ) ;
#114 = CARTESIAN_POINT ( 'NONE',  ( 0.000000000000000000, 0.000000000000000000, 0.000000000000000000 ) ) ;
#115 = PRODUCT_DEFINITION_FORMATION_WITH_SPECIFIED_SOURCE ( 'LIBOVOLNÝ', '', #42, .NOT_KNOWN. ) ;
#116 = DIRECTION ( 'NONE',  ( 1.000000000000000000, 0.000000000000000000, 0.000000000000000000 ) ) ;
#117 = ADVANCED_FACE ( 'NONE', ( #3 ), #81, .T. ) ;
#118 = CLOSED_SHELL ( 'NONE', ( #10, #45, #169, #34, #102, #287, #123, #117, #266 ) ) ;
#119 = EDGE_LOOP ( 'NONE', ( #88, #85, #17, #305 ) ) ;
#120 = AXIS2_PLACEMENT_3D ( 'NONE', #77, #104, #264 ) ;
#121 = FACE_BOUND ( 'NONE', #300, .T. ) ;
#122 = ORIENTED_EDGE ( 'NONE', *, *, #248, .F. ) ;
#123 = ADVANCED_FACE ( 'NONE', ( #5 ), #103, .T. ) ;
#124 = AXIS2_PLACEMENT_3D ( 'NONE', #43, #234, #304 ) ;
#125 = EDGE_LOOP ( 'NONE', ( #122, #219, #91, #255 ) ) ;
#126 = AXIS2_PLACEMENT_3D ( 'NONE', #197, #182, #246 ) ;
#127 = LINE ( 'NONE', #200, #68 ) ;
#128 = CARTESIAN_POINT ( 'NONE',  ( 0.000000000000000000, 0.000000000000000000, 3.200000000000008171 ) ) ;
#129 = CARTESIAN_POINT ( 'NONE',  ( 0.000000000000000000, 0.000000000000000000, 253.0000000000000000 ) ) ;
#130 = CIRCLE ( 'NONE', #12, 4.000000000000000000 ) ;
#131 = CARTESIAN_POINT ( 'NONE',  ( -4.000000000000000000, 0.000000000000000000, 0.000000000000000000 ) ) ;
#132 = EDGE_CURVE ( 'NONE', #194, #87, #24, .T. ) ;
#133 = CARTESIAN_POINT ( 'NONE',  ( -4.000000000000000000, 0.000000000000000000, 3.000000000000000000 ) ) ;
#134 = APPROVAL_ROLE ( '' ) ;
#135 = APPROVAL_DATE_TIME ( #293, #15 ) ;
#136 = VERTEX_POINT ( 'NONE', #243 ) ;
#137 = ORIENTED_EDGE ( 'NONE', *, *, #207, .T. ) ;
#138 = EDGE_CURVE ( 'NONE', #159, #194, #127, .T. ) ;
#139 = CALENDAR_DATE ( 2022, 7, 7 ) ;
#140 = ORIENTED_EDGE ( 'NONE', *, *, #26, .T. ) ;
#141 = PERSON_AND_ORGANIZATION ( #265, #109 ) ;
#142 = CC_DESIGN_PERSON_AND_ORGANIZATION_ASSIGNMENT ( #249, #254, ( #115 ) ) ;
#143 = DIRECTION ( 'NONE',  ( -0.000000000000000000, -0.000000000000000000, -1.000000000000000000 ) ) ;
#144 = APPLICATION_CONTEXT ( 'configuration controlled 3d designs of mechanical parts and assemblies' ) ;
#145 = DIRECTION ( 'NONE',  ( 0.000000000000000000, 0.000000000000000000, 1.000000000000000000 ) ) ;
#146 = MANIFOLD_SOLID_BREP ( 'Zaoblit1', #118 ) ;
#147 = AXIS2_PLACEMENT_3D ( 'NONE', #97, #21, #116 ) ;
#148 = DIRECTION ( 'NONE',  ( 1.000000000000000000, 0.000000000000000000, 0.000000000000000000 ) ) ;
#149 = VECTOR ( 'NONE', #105, 1000.000000000000000 ) ;
#150 = CARTESIAN_POINT ( 'NONE',  ( 0.000000000000000000, 0.000000000000000000, 0.000000000000000000 ) ) ;
#151 = FACE_OUTER_BOUND ( 'NONE', #185, .T. ) ;
#152 = CARTESIAN_POINT ( 'NONE',  ( 0.000000000000000000, 0.000000000000000000, 3.000000000000000000 ) ) ;
#153 = LINE ( 'NONE', #133, #149 ) ;
#154 = CC_DESIGN_DATE_AND_TIME_ASSIGNMENT ( #270, #184, ( #208 ) ) ;
#155 = CC_DESIGN_SECURITY_CLASSIFICATION ( #208, ( #115 ) ) ;
#156 = CARTESIAN_POINT ( 'NONE',  ( 0.000000000000000000, 0.000000000000000000, 3.200000000000008171 ) ) ;
#157 = DIRECTION ( 'NONE',  ( 0.000000000000000000, 0.000000000000000000, -1.000000000000000000 ) ) ;
#158 = PERSON_AND_ORGANIZATION ( #265, #109 ) ;
#159 = VERTEX_POINT ( 'NONE', #28 ) ;
#160 = APPROVAL_DATE_TIME ( #59, #20 ) ;
#161 = ORIENTED_EDGE ( 'NONE', *, *, #113, .T. ) ;
#162 = AXIS2_PLACEMENT_3D ( 'NONE', #227, #100, #27 ) ;
#163 = APPROVAL_DATE_TIME ( #298, #202 ) ;
#164 = CC_DESIGN_PERSON_AND_ORGANIZATION_ASSIGNMENT ( #65, #230, ( #115 ) ) ;
#165 = PERSON_AND_ORGANIZATION ( #265, #109 ) ;
#166 = ORIENTED_EDGE ( 'NONE', *, *, #238, .T. ) ;
#167 = PERSON_AND_ORGANIZATION ( #265, #109 ) ;
#168 = AXIS2_PLACEMENT_3D ( 'NONE', #173, #196, #281 ) ;
#169 = ADVANCED_FACE ( 'NONE', ( #56 ), #225, .T. ) ;
#170 = CARTESIAN_POINT ( 'NONE',  ( -2.250000000000000000, 0.000000000000000000, 253.0000000000000000 ) ) ;
#171 = CARTESIAN_POINT ( 'NONE',  ( 4.000000000000000000, 4.898587196589412829E-16, 3.000000000000000000 ) ) ;
#172 = DIRECTION ( 'NONE',  ( -1.000000000000000000, 0.000000000000000000, 0.000000000000000000 ) ) ;
#173 = CARTESIAN_POINT ( 'NONE',  ( 0.000000000000000000, 0.000000000000000000, 0.000000000000000000 ) ) ;
#174 = CARTESIAN_POINT ( 'NONE',  ( -2.250000000000000000, 0.000000000000000000, 253.0000000000000000 ) ) ;
#175 = CARTESIAN_POINT ( 'NONE',  ( 0.000000000000000000, 0.000000000000000000, 3.000000000000000000 ) ) ;
#176 = EDGE_CURVE ( 'NONE', #194, #136, #50, .T. ) ;
#177 = DIRECTION ( 'NONE',  ( 0.000000000000000000, -1.000000000000000000, 0.000000000000000000 ) ) ;
#178 = CIRCLE ( 'NONE', #7, 2.449999999999999734 ) ;
#179 = FACE_OUTER_BOUND ( 'NONE', #13, .T. ) ;
#180 =( GEOMETRIC_REPRESENTATION_CONTEXT ( 3 ) GLOBAL_UNCERTAINTY_ASSIGNED_CONTEXT ( ( #267 ) ) GLOBAL_UNIT_ASSIGNED_CONTEXT ( ( #101, #52, #110 ) ) REPRESENTATION_CONTEXT ( 'NONE', 'WORKASPACE' ) );
#181 = DIRECTION ( 'NONE',  ( 0.000000000000000000, 0.000000000000000000, 1.000000000000000000 ) ) ;
#182 = DIRECTION ( 'NONE',  ( 0.000000000000000000, 0.000000000000000000, 1.000000000000000000 ) ) ;
#183 = CALENDAR_DATE ( 2022, 7, 7 ) ;
#184 = DATE_TIME_ROLE ( 'classification_date' ) ;
#185 = EDGE_LOOP ( 'NONE', ( #210, #19 ) ) ;
#186 = PRODUCT_RELATED_PRODUCT_CATEGORY ( 'detail', '', ( #42 ) ) ;
#187 = CIRCLE ( 'NONE', #120, 2.250000000000000000 ) ;
#188 = VERTEX_POINT ( 'NONE', #222 ) ;
#189 = COORDINATED_UNIVERSAL_TIME_OFFSET ( 1, 0, .AHEAD. ) ;
#190 = VERTEX_POINT ( 'NONE', #131 ) ;
#191 = AXIS2_PLACEMENT_3D ( 'NONE', #22, #307, #99 ) ;
#192 = ORIENTED_EDGE ( 'NONE', *, *, #1, .F. ) ;
#193 = CARTESIAN_POINT ( 'NONE',  ( 4.000000000000000000, 4.898587196589412829E-16, 0.000000000000000000 ) ) ;
#194 = VERTEX_POINT ( 'NONE', #31 ) ;
#195 = CARTESIAN_POINT ( 'NONE',  ( 0.000000000000000000, 0.000000000000000000, 253.0000000000000000 ) ) ;
#196 = DIRECTION ( 'NONE',  ( 0.000000000000000000, 0.000000000000000000, 1.000000000000000000 ) ) ;
#197 = CARTESIAN_POINT ( 'NONE',  ( 0.000000000000000000, 0.000000000000000000, 253.0000000000000000 ) ) ;
#198 = CARTESIAN_POINT ( 'NONE',  ( 0.000000000000000000, 0.000000000000000000, 0.000000000000000000 ) ) ;
#199 = CIRCLE ( 'NONE', #2, 4.000000000000000000 ) ;
#200 = CARTESIAN_POINT ( 'NONE',  ( 2.250000000000000000, 2.755455298081544285E-16, 253.0000000000000000 ) ) ;
#201 = DIRECTION ( 'NONE',  ( -0.000000000000000000, -0.000000000000000000, -1.000000000000000000 ) ) ;
#202 = APPROVAL ( #299, 'NEURÈENÝ' ) ;
#203 = DESIGN_CONTEXT ( 'detailed design', #144, 'design' ) ;
#204 = COORDINATED_UNIVERSAL_TIME_OFFSET ( 1, 0, .AHEAD. ) ;
#205 = MECHANICAL_CONTEXT ( 'NONE', #221, 'mechanical' ) ;
#206 = ORIENTED_EDGE ( 'NONE', *, *, #297, .F. ) ;
#207 = EDGE_CURVE ( 'NONE', #87, #107, #302, .T. ) ;
#208 = SECURITY_CLASSIFICATION ( '', '', #39 ) ;
#209 = DATE_TIME_ROLE ( 'creation_date' ) ;
#210 = ORIENTED_EDGE ( 'NONE', *, *, #297, .T. ) ;
#211 = ORIENTED_EDGE ( 'NONE', *, *, #213, .T. ) ;
#212 = APPLICATION_PROTOCOL_DEFINITION ( 'international standard', 'config_control_design', 1994, #221 ) ;
#213 = EDGE_CURVE ( 'NONE', #87, #194, #251, .T. ) ;
#214 = ORIENTED_EDGE ( 'NONE', *, *, #113, .F. ) ;
#215 = CARTESIAN_POINT ( 'NONE',  ( 0.000000000000000000, 0.000000000000000000, 253.0000000000000000 ) ) ;
#216 = AXIS2_PLACEMENT_3D ( 'NONE', #78, #54, #75 ) ;
#217 = EDGE_LOOP ( 'NONE', ( #60, #37 ) ) ;
#218 = CC_DESIGN_APPROVAL ( #15, ( #79 ) ) ;
#219 = ORIENTED_EDGE ( 'NONE', *, *, #138, .T. ) ;
#220 = CARTESIAN_POINT ( 'NONE',  ( 0.000000000000000000, 0.000000000000000000, 3.000000000000000000 ) ) ;
#221 = APPLICATION_CONTEXT ( 'configuration controlled 3d designs of mechanical parts and assemblies' ) ;
#222 = CARTESIAN_POINT ( 'NONE',  ( -4.000000000000000000, 0.000000000000000000, 3.000000000000000000 ) ) ;
#223 = TOROIDAL_SURFACE ( 'NONE', #124, 2.449999999999999734, 0.2000000000000000111 ) ;
#224 = DIRECTION ( 'NONE',  ( 0.000000000000000000, 0.000000000000000000, 1.000000000000000000 ) ) ;
#225 = CYLINDRICAL_SURFACE ( 'NONE', #62, 4.000000000000000000 ) ;
#226 = APPROVAL_PERSON_ORGANIZATION ( #165, #15, #232 ) ;
#227 = CARTESIAN_POINT ( 'NONE',  ( 0.000000000000000000, 0.000000000000000000, 3.200000000000008171 ) ) ;
#228 = COORDINATED_UNIVERSAL_TIME_OFFSET ( 1, 0, .AHEAD. ) ;
#229 = ORIENTED_EDGE ( 'NONE', *, *, #132, .F. ) ;
#230 = PERSON_AND_ORGANIZATION_ROLE ( 'creator' ) ;
#231 = ORIENTED_EDGE ( 'NONE', *, *, #38, .T. ) ;
#232 = APPROVAL_ROLE ( '' ) ;
#233 = FACE_OUTER_BOUND ( 'NONE', #250, .T. ) ;
#234 = DIRECTION ( 'NONE',  ( 0.000000000000000000, 0.000000000000000000, 1.000000000000000000 ) ) ;
#235 = ORIENTED_EDGE ( 'NONE', *, *, #176, .F. ) ;
#236 = CARTESIAN_POINT ( 'NONE',  ( 0.000000000000000000, 0.000000000000000000, 3.000000000000000000 ) ) ;
#237 = LOCAL_TIME ( 12, 21, 43.00000000000000000, #61 ) ;
#238 = EDGE_CURVE ( 'NONE', #188, #190, #153, .T. ) ;
#239 = PLANE ( 'NONE',  #191 ) ;
#240 = AXIS2_PLACEMENT_3D ( 'NONE', #150, #282, #306 ) ;
#241 = CARTESIAN_POINT ( 'NONE',  ( 2.449999999999999734, 0.000000000000000000, 3.200000000000008171 ) ) ;
#242 = DIRECTION ( 'NONE',  ( 1.000000000000000000, 0.000000000000000000, 0.000000000000000000 ) ) ;
#243 = CARTESIAN_POINT ( 'NONE',  ( 2.449999999999999734, 0.000000000000000000, 3.000000000000004441 ) ) ;
#244 = CC_DESIGN_PERSON_AND_ORGANIZATION_ASSIGNMENT ( #167, #89, ( #42 ) ) ;
#245 = FACE_OUTER_BOUND ( 'NONE', #111, .T. ) ;
#246 = DIRECTION ( 'NONE',  ( 1.000000000000000000, 0.000000000000000000, -0.000000000000000000 ) ) ;
#247 = CC_DESIGN_APPROVAL ( #202, ( #115 ) ) ;
#248 = EDGE_CURVE ( 'NONE', #159, #96, #187, .T. ) ;
#249 = PERSON_AND_ORGANIZATION ( #265, #109 ) ;
#250 = EDGE_LOOP ( 'NONE', ( #95, #206, #166, #140 ) ) ;
#251 = CIRCLE ( 'NONE', #273, 2.250000000000000000 ) ;
#252 = COORDINATED_UNIVERSAL_TIME_OFFSET ( 1, 0, .AHEAD. ) ;
#253 = EDGE_LOOP ( 'NONE', ( #277, #137, #214, #235 ) ) ;
#254 = PERSON_AND_ORGANIZATION_ROLE ( 'design_supplier' ) ;
#255 = ORIENTED_EDGE ( 'NONE', *, *, #90, .F. ) ;
#256 = CC_DESIGN_PERSON_AND_ORGANIZATION_ASSIGNMENT ( #8, #108, ( #79 ) ) ;
#257 = ORIENTED_EDGE ( 'NONE', *, *, #176, .T. ) ;
#258 = CARTESIAN_POINT ( 'NONE',  ( -2.250000000000000000, 0.000000000000000000, 3.200000000000008171 ) ) ;
#259 = VECTOR ( 'NONE', #261, 1000.000000000000000 ) ;
#260 = CYLINDRICAL_SURFACE ( 'NONE', #92, 2.250000000000000000 ) ;
#261 = DIRECTION ( 'NONE',  ( -0.000000000000000000, -0.000000000000000000, -1.000000000000000000 ) ) ;
#262 = APPROVAL_PERSON_ORGANIZATION ( #36, #202, #57 ) ;
#263 = DIRECTION ( 'NONE',  ( -0.000000000000000000, -0.000000000000000000, -1.000000000000000000 ) ) ;
#264 = DIRECTION ( 'NONE',  ( 1.000000000000000000, 0.000000000000000000, 0.000000000000000000 ) ) ;
#265 = PERSON ( 'NEURÈENÝ', 'NEURÈENÝ', 'NEURÈENÝ', ('NEURÈENÝ'), ('NEURÈENÝ'), ('NEURÈENÝ') ) ;
#266 = ADVANCED_FACE ( 'NONE', ( #179 ), #288, .F. ) ;
#267 = UNCERTAINTY_MEASURE_WITH_UNIT (LENGTH_MEASURE( 1.000000000000000082E-05 ), #101, 'distance_accuracy_value', 'NONE');
#268 = CARTESIAN_POINT ( 'NONE',  ( 0.000000000000000000, 0.000000000000000000, 3.000000000000000000 ) ) ;
#269 = DIRECTION ( 'NONE',  ( -0.000000000000000000, -0.000000000000000000, -1.000000000000000000 ) ) ;
#270 = DATE_AND_TIME ( #183, #47 ) ;
#271 = LOCAL_TIME ( 12, 21, 43.00000000000000000, #228 ) ;
#272 = AXIS2_PLACEMENT_3D ( 'NONE', #236, #16, #73 ) ;
#273 = AXIS2_PLACEMENT_3D ( 'NONE', #156, #224, #4 ) ;
#274 = APPLICATION_PROTOCOL_DEFINITION ( 'international standard', 'config_control_design', 1994, #144 ) ;
#275 = ORIENTED_EDGE ( 'NONE', *, *, #207, .F. ) ;
#276 = CC_DESIGN_APPROVAL ( #20, ( #208 ) ) ;
#277 = ORIENTED_EDGE ( 'NONE', *, *, #213, .F. ) ;
#278 = CIRCLE ( 'NONE', #147, 2.449999999999999734 ) ;
#279 = FACE_OUTER_BOUND ( 'NONE', #125, .T. ) ;
#280 = ADVANCED_BREP_SHAPE_REPRESENTATION ( 'e9bc', ( #146, #80 ), #180 ) ;
#281 = DIRECTION ( 'NONE',  ( 1.000000000000000000, 0.000000000000000000, 0.000000000000000000 ) ) ;
#282 = DIRECTION ( 'NONE',  ( 0.000000000000000000, 0.000000000000000000, 1.000000000000000000 ) ) ;
#283 = DIRECTION ( 'NONE',  ( 0.000000000000000000, 0.000000000000000000, 1.000000000000000000 ) ) ;
#284 = PLANE ( 'NONE',  #18 ) ;
#285 = DIRECTION ( 'NONE',  ( -1.000000000000000000, 0.000000000000000000, 0.000000000000000000 ) ) ;
#286 = CIRCLE ( 'NONE', #168, 4.000000000000000000 ) ;
#287 = ADVANCED_FACE ( 'NONE', ( #245 ), #284, .F. ) ;
#288 = TOROIDAL_SURFACE ( 'NONE', #162, 2.449999999999999734, 0.2000000000000000111 ) ;
#289 = DIRECTION ( 'NONE',  ( 1.000000000000000000, 0.000000000000000000, 0.000000000000000000 ) ) ;
#290 = DIRECTION ( 'NONE',  ( 1.000000000000000000, 0.000000000000000000, 0.000000000000000000 ) ) ;
#291 = CALENDAR_DATE ( 2022, 7, 7 ) ;
#292 = AXIS2_PLACEMENT_3D ( 'NONE', #128, #181, #289 ) ;
#293 = DATE_AND_TIME ( #291, #70 ) ;
#294 = EDGE_LOOP ( 'NONE', ( #63, #35, #46, #211 ) ) ;
#295 = DIRECTION ( 'NONE',  ( 1.000000000000000000, 0.000000000000000000, 0.000000000000000000 ) ) ;
#296 = ORIENTED_EDGE ( 'NONE', *, *, #38, .F. ) ;
#297 = EDGE_CURVE ( 'NONE', #188, #93, #199, .T. ) ;
#298 = DATE_AND_TIME ( #139, #237 ) ;
#299 = APPROVAL_STATUS ( 'not_yet_approved' ) ;
#300 = EDGE_LOOP ( 'NONE', ( #161, #231 ) ) ;
#301 = LINE ( 'NONE', #174, #259 ) ;
#302 = CIRCLE ( 'NONE', #216, 0.2000000000000000944 ) ;
#303 = PRODUCT_DEFINITION_SHAPE ( 'NONE', 'NONE',  #79 ) ;
#304 = DIRECTION ( 'NONE',  ( 1.000000000000000000, 0.000000000000000000, 0.000000000000000000 ) ) ;
#305 = ORIENTED_EDGE ( 'NONE', *, *, #238, .F. ) ;
#306 = DIRECTION ( 'NONE',  ( 1.000000000000000000, 0.000000000000000000, 0.000000000000000000 ) ) ;
#307 = DIRECTION ( 'NONE',  ( 0.000000000000000000, 0.000000000000000000, 1.000000000000000000 ) ) ;
ENDSEC;
END-ISO-10303-21;
