ISO-10303-21;
HEADER;
FILE_DESCRIPTION (( 'STEP AP203' ),
    '1' );
FILE_NAME ('1247.STEP',
    '2022-07-07T10:27:40',
    ( '' ),
    ( '' ),
    'SwSTEP 2.0',
    'SolidWorks 2019',
    '' );
FILE_SCHEMA (( 'CONFIG_CONTROL_DESIGN' ));
ENDSEC;

DATA;
#1 = EDGE_CURVE ( 'NONE', #233, #219, #217, .T. ) ;
#2 = ORIENTED_EDGE ( 'NONE', *, *, #175, .F. ) ;
#3 = AXIS2_PLACEMENT_3D ( 'NONE', #207, #252, #178 ) ;
#4 = EDGE_CURVE ( 'NONE', #219, #193, #197, .T. ) ;
#5 = PRODUCT_DEFINITION ( 'NEZNÁMÝ', '', #73, #21 ) ;
#6 = APPROVAL_ROLE ( '' ) ;
#7 = AXIS2_PLACEMENT_3D ( 'NONE', #62, #86, #10 ) ;
#8 = DATE_AND_TIME ( #61, #31 ) ;
#9 = APPROVAL_PERSON_ORGANIZATION ( #89, #79, #243 ) ;
#10 = DIRECTION ( 'NONE',  ( 1.000000000000000000, 0.000000000000000000, 0.000000000000000000 ) ) ;
#11 = FACE_OUTER_BOUND ( 'NONE', #260, .T. ) ;
#12 = CARTESIAN_POINT ( 'NONE',  ( 1.950000000000000178, 0.000000000000000000, 2.999999999999990674 ) ) ;
#13 = DIRECTION ( 'NONE',  ( 1.000000000000000000, 0.000000000000000000, 0.000000000000000000 ) ) ;
#14 = COORDINATED_UNIVERSAL_TIME_OFFSET ( 1, 0, .AHEAD. ) ;
#15 = DIRECTION ( 'NONE',  ( 1.000000000000000000, 0.000000000000000000, 0.000000000000000000 ) ) ;
#16 = COORDINATED_UNIVERSAL_TIME_OFFSET ( 1, 0, .AHEAD. ) ;
#17 = CIRCLE ( 'NONE', #101, 1.950000000000000178 ) ;
#18 = DIRECTION ( 'NONE',  ( -1.000000000000000000, 1.224646799147354686E-16, 0.000000000000000000 ) ) ;
#19 = CC_DESIGN_PERSON_AND_ORGANIZATION_ASSIGNMENT ( #288, #230, ( #73 ) ) ;
#20 = EDGE_LOOP ( 'NONE', ( #52, #100, #190, #2 ) ) ;
#21 = DESIGN_CONTEXT ( 'detailed design', #213, 'design' ) ;
#22 = ORIENTED_EDGE ( 'NONE', *, *, #289, .T. ) ;
#23 = VERTEX_POINT ( 'NONE', #224 ) ;
#24 = VECTOR ( 'NONE', #104, 1000.000000000000000 ) ;
#25 = LOCAL_TIME ( 12, 27, 40.00000000000000000, #16 ) ;
#26 = VERTEX_POINT ( 'NONE', #93 ) ;
#27 = ORIENTED_EDGE ( 'NONE', *, *, #242, .F. ) ;
#28 = AXIS2_PLACEMENT_3D ( 'NONE', #141, #275, #158 ) ;
#29 = CC_DESIGN_APPROVAL ( #79, ( #5 ) ) ;
#30 = CLOSED_SHELL ( 'NONE', ( #262, #102, #253, #188, #258, #210, #142, #236, #223 ) ) ;
#31 = LOCAL_TIME ( 12, 27, 40.00000000000000000, #177 ) ;
#32 = APPROVAL ( #132, 'NEURÈENÝ' ) ;
#33 = SECURITY_CLASSIFICATION_LEVEL ( 'unclassified' ) ;
#34 = APPROVAL_STATUS ( 'not_yet_approved' ) ;
#35 = CYLINDRICAL_SURFACE ( 'NONE', #78, 3.500000000000000444 ) ;
#36 = DIRECTION ( 'NONE',  ( 0.000000000000000000, 0.000000000000000000, 1.000000000000000000 ) ) ;
#37 = APPROVAL_DATE_TIME ( #8, #32 ) ;
#38 = EDGE_CURVE ( 'NONE', #278, #26, #99, .T. ) ;
#39 = AXIS2_PLACEMENT_3D ( 'NONE', #48, #203, #269 ) ;
#40 = CARTESIAN_POINT ( 'NONE',  ( 3.500000000000000444, 4.286263797015737088E-16, 3.000000000000000000 ) ) ;
#41 = FACE_OUTER_BOUND ( 'NONE', #20, .T. ) ;
#42 = APPROVAL_STATUS ( 'not_yet_approved' ) ;
#43 = DIRECTION ( 'NONE',  ( 0.000000000000000000, 0.000000000000000000, 1.000000000000000000 ) ) ;
#44 = CARTESIAN_POINT ( 'NONE',  ( 0.000000000000000000, 0.000000000000000000, 0.000000000000000000 ) ) ;
#45 = COORDINATED_UNIVERSAL_TIME_OFFSET ( 1, 0, .AHEAD. ) ;
#46 = DIRECTION ( 'NONE',  ( -0.000000000000000000, -0.000000000000000000, -1.000000000000000000 ) ) ;
#47 = EDGE_CURVE ( 'NONE', #234, #233, #117, .T. ) ;
#48 = CARTESIAN_POINT ( 'NONE',  ( 0.000000000000000000, 0.000000000000000000, 3.199999999999980638 ) ) ;
#49 = ORIENTED_EDGE ( 'NONE', *, *, #54, .F. ) ;
#50 = ORIENTED_EDGE ( 'NONE', *, *, #286, .F. ) ;
#51 = VERTEX_POINT ( 'NONE', #115 ) ;
#52 = ORIENTED_EDGE ( 'NONE', *, *, #4, .F. ) ;
#53 = AXIS2_PLACEMENT_3D ( 'NONE', #296, #91, #184 ) ;
#54 = EDGE_CURVE ( 'NONE', #51, #26, #144, .T. ) ;
#55 = AXIS2_PLACEMENT_3D ( 'NONE', #211, #43, #231 ) ;
#56 = CC_DESIGN_APPROVAL ( #265, ( #73 ) ) ;
#57 = DATE_AND_TIME ( #119, #25 ) ;
#58 = FACE_OUTER_BOUND ( 'NONE', #302, .T. ) ;
#59 = DIRECTION ( 'NONE',  ( 1.000000000000000000, 0.000000000000000000, -0.000000000000000000 ) ) ;
#60 = EDGE_CURVE ( 'NONE', #97, #51, #129, .T. ) ;
#61 = CALENDAR_DATE ( 2022, 7, 7 ) ;
#62 = CARTESIAN_POINT ( 'NONE',  ( 0.000000000000000000, 0.000000000000000000, 0.000000000000000000 ) ) ;
#63 = PLANE ( 'NONE',  #245 ) ;
#64 = CARTESIAN_POINT ( 'NONE',  ( 0.000000000000000000, 0.000000000000000000, 0.000000000000000000 ) ) ;
#65 = CARTESIAN_POINT ( 'NONE',  ( 0.000000000000000000, 0.000000000000000000, 0.000000000000000000 ) ) ;
#66 = FACE_BOUND ( 'NONE', #169, .T. ) ;
#67 = PERSON_AND_ORGANIZATION ( #201, #298 ) ;
#68 = LINE ( 'NONE', #110, #83 ) ;
#69 = DIRECTION ( 'NONE',  ( 1.000000000000000000, 0.000000000000000000, 0.000000000000000000 ) ) ;
#70 = CARTESIAN_POINT ( 'NONE',  ( 0.000000000000000000, 0.000000000000000000, 403.0000000000000000 ) ) ;
#71 = CIRCLE ( 'NONE', #237, 1.950000000000000178 ) ;
#72 = ORIENTED_EDGE ( 'NONE', *, *, #124, .T. ) ;
#73 = PRODUCT_DEFINITION_FORMATION_WITH_SPECIFIED_SOURCE ( 'LIBOVOLNÝ', '', #218, .NOT_KNOWN. ) ;
#74 = ORIENTED_EDGE ( 'NONE', *, *, #4, .T. ) ;
#75 = CC_DESIGN_PERSON_AND_ORGANIZATION_ASSIGNMENT ( #274, #222, ( #73 ) ) ;
#76 = ORIENTED_EDGE ( 'NONE', *, *, #242, .T. ) ;
#77 = EDGE_LOOP ( 'NONE', ( #303, #27, #261, #147 ) ) ;
#78 = AXIS2_PLACEMENT_3D ( 'NONE', #88, #46, #292 ) ;
#79 = APPROVAL ( #34, 'NEURÈENÝ' ) ;
#80 = CC_DESIGN_APPROVAL ( #32, ( #209 ) ) ;
#81 = APPLICATION_CONTEXT ( 'configuration controlled 3d designs of mechanical parts and assemblies' ) ;
#82 = PERSON_AND_ORGANIZATION ( #201, #298 ) ;
#83 = VECTOR ( 'NONE', #202, 1000.000000000000000 ) ;
#84 = LOCAL_TIME ( 12, 27, 40.00000000000000000, #14 ) ;
#85 = CALENDAR_DATE ( 2022, 7, 7 ) ;
#86 = DIRECTION ( 'NONE',  ( 0.000000000000000000, 0.000000000000000000, 1.000000000000000000 ) ) ;
#87 = DATE_AND_TIME ( #140, #284 ) ;
#88 = CARTESIAN_POINT ( 'NONE',  ( 0.000000000000000000, 0.000000000000000000, 3.000000000000000000 ) ) ;
#89 = PERSON_AND_ORGANIZATION ( #201, #298 ) ;
#90 = PLANE ( 'NONE',  #176 ) ;
#91 = DIRECTION ( 'NONE',  ( 0.000000000000000000, 0.000000000000000000, 1.000000000000000000 ) ) ;
#92 = PERSON_AND_ORGANIZATION ( #201, #298 ) ;
#93 = CARTESIAN_POINT ( 'NONE',  ( -3.500000000000000444, 0.000000000000000000, 0.000000000000000000 ) ) ;
#94 = CC_DESIGN_PERSON_AND_ORGANIZATION_ASSIGNMENT ( #67, #165, ( #209 ) ) ;
#95 = CARTESIAN_POINT ( 'NONE',  ( 0.000000000000000000, 0.000000000000000000, 3.000000000000000000 ) ) ;
#96 = FACE_OUTER_BOUND ( 'NONE', #123, .T. ) ;
#97 = VERTEX_POINT ( 'NONE', #160 ) ;
#98 = UNCERTAINTY_MEASURE_WITH_UNIT (LENGTH_MEASURE( 1.000000000000000082E-05 ), #276, 'distance_accuracy_value', 'NONE');
#99 = CIRCLE ( 'NONE', #7, 3.500000000000000444 ) ;
#100 = ORIENTED_EDGE ( 'NONE', *, *, #105, .T. ) ;
#101 = AXIS2_PLACEMENT_3D ( 'NONE', #248, #189, #181 ) ;
#102 = ADVANCED_FACE ( 'NONE', ( #227 ), #200, .T. ) ;
#103 = ORIENTED_EDGE ( 'NONE', *, *, #154, .T. ) ;
#104 = DIRECTION ( 'NONE',  ( -0.000000000000000000, -0.000000000000000000, -1.000000000000000000 ) ) ;
#105 = EDGE_CURVE ( 'NONE', #219, #23, #191, .T. ) ;
#106 = VECTOR ( 'NONE', #166, 1000.000000000000000 ) ;
#107 = DIRECTION ( 'NONE',  ( 0.000000000000000000, 0.000000000000000000, 1.000000000000000000 ) ) ;
#108 = CYLINDRICAL_SURFACE ( 'NONE', #199, 1.750000000000000000 ) ;
#109 = CIRCLE ( 'NONE', #279, 0.2000000000000000944 ) ;
#110 = CARTESIAN_POINT ( 'NONE',  ( 1.750000000000000000, 2.143131898507868297E-16, 403.0000000000000000 ) ) ;
#111 = CARTESIAN_POINT ( 'NONE',  ( 0.000000000000000000, 0.000000000000000000, 3.000000000000000000 ) ) ;
#112 = CARTESIAN_POINT ( 'NONE',  ( 1.950000000000000178, 0.000000000000000000, 3.199999999999980638 ) ) ;
#113 = CARTESIAN_POINT ( 'NONE',  ( 3.500000000000000444, 4.286263797015737088E-16, 0.000000000000000000 ) ) ;
#114 = APPROVAL_DATE_TIME ( #87, #265 ) ;
#115 = CARTESIAN_POINT ( 'NONE',  ( -3.500000000000000444, 0.000000000000000000, 3.000000000000000000 ) ) ;
#116 =( NAMED_UNIT ( * ) SI_UNIT ( $, .STERADIAN. ) SOLID_ANGLE_UNIT ( ) );
#117 = CIRCLE ( 'NONE', #55, 1.750000000000000000 ) ;
#118 = AXIS2_PLACEMENT_3D ( 'NONE', #205, #208, #13 ) ;
#119 = CALENDAR_DATE ( 2022, 7, 7 ) ;
#120 = CARTESIAN_POINT ( 'NONE',  ( -1.950000000000000178, 2.388061258337339136E-16, 3.199999999999980638 ) ) ;
#121 = CARTESIAN_POINT ( 'NONE',  ( 0.000000000000000000, 0.000000000000000000, 3.000000000000000000 ) ) ;
#122 = ORIENTED_EDGE ( 'NONE', *, *, #162, .T. ) ;
#123 = EDGE_LOOP ( 'NONE', ( #214, #215 ) ) ;
#124 = EDGE_CURVE ( 'NONE', #234, #193, #68, .T. ) ;
#125 =( GEOMETRIC_REPRESENTATION_CONTEXT ( 3 ) GLOBAL_UNCERTAINTY_ASSIGNED_CONTEXT ( ( #98 ) ) GLOBAL_UNIT_ASSIGNED_CONTEXT ( ( #276, #212, #116 ) ) REPRESENTATION_CONTEXT ( 'NONE', 'WORKASPACE' ) );
#126 = ORIENTED_EDGE ( 'NONE', *, *, #47, .F. ) ;
#127 = ORIENTED_EDGE ( 'NONE', *, *, #289, .F. ) ;
#128 = ORIENTED_EDGE ( 'NONE', *, *, #54, .T. ) ;
#129 = CIRCLE ( 'NONE', #28, 3.500000000000000444 ) ;
#130 = CIRCLE ( 'NONE', #53, 1.750000000000000000 ) ;
#131 = CC_DESIGN_PERSON_AND_ORGANIZATION_ASSIGNMENT ( #92, #156, ( #218 ) ) ;
#132 = APPROVAL_STATUS ( 'not_yet_approved' ) ;
#133 = APPROVAL_DATE_TIME ( #182, #79 ) ;
#134 = CARTESIAN_POINT ( 'NONE',  ( -3.500000000000000444, 0.000000000000000000, 3.000000000000000000 ) ) ;
#135 = PLANE ( 'NONE',  #287 ) ;
#136 = APPROVAL_PERSON_ORGANIZATION ( #82, #265, #143 ) ;
#137 = MECHANICAL_CONTEXT ( 'NONE', #81, 'mechanical' ) ;
#138 = DIRECTION ( 'NONE',  ( 1.224646799147353207E-16, 1.000000000000000000, -0.000000000000000000 ) ) ;
#139 = DIRECTION ( 'NONE',  ( -0.000000000000000000, -0.000000000000000000, -1.000000000000000000 ) ) ;
#140 = CALENDAR_DATE ( 2022, 7, 7 ) ;
#141 = CARTESIAN_POINT ( 'NONE',  ( 0.000000000000000000, 0.000000000000000000, 3.000000000000000000 ) ) ;
#142 = ADVANCED_FACE ( 'NONE', ( #246 ), #108, .T. ) ;
#143 = APPROVAL_ROLE ( '' ) ;
#144 = LINE ( 'NONE', #134, #106 ) ;
#145 = DIRECTION ( 'NONE',  ( 0.000000000000000000, 0.000000000000000000, 1.000000000000000000 ) ) ;
#146 = CIRCLE ( 'NONE', #263, 3.500000000000000444 ) ;
#147 = ORIENTED_EDGE ( 'NONE', *, *, #220, .F. ) ;
#148 = EDGE_LOOP ( 'NONE', ( #127, #305 ) ) ;
#149 = ORIENTED_EDGE ( 'NONE', *, *, #1, .F. ) ;
#150 = ORIENTED_EDGE ( 'NONE', *, *, #154, .F. ) ;
#151 = CC_DESIGN_DATE_AND_TIME_ASSIGNMENT ( #297, #185, ( #5 ) ) ;
#152 = TOROIDAL_SURFACE ( 'NONE', #118, 1.950000000000000178, 0.2000000000000000111 ) ;
#153 = CC_DESIGN_DATE_AND_TIME_ASSIGNMENT ( #57, #221, ( #209 ) ) ;
#154 = EDGE_CURVE ( 'NONE', #97, #278, #300, .T. ) ;
#155 = CIRCLE ( 'NONE', #225, 3.500000000000000444 ) ;
#156 = PERSON_AND_ORGANIZATION_ROLE ( 'design_owner' ) ;
#157 = SHAPE_DEFINITION_REPRESENTATION ( #172, #257 ) ;
#158 = DIRECTION ( 'NONE',  ( 1.000000000000000000, 0.000000000000000000, 0.000000000000000000 ) ) ;
#159 = CYLINDRICAL_SURFACE ( 'NONE', #271, 3.500000000000000444 ) ;
#160 = CARTESIAN_POINT ( 'NONE',  ( 3.500000000000000444, 4.286263797015737088E-16, 3.000000000000000000 ) ) ;
#161 = DIRECTION ( 'NONE',  ( -1.000000000000000000, 0.000000000000000000, 0.000000000000000000 ) ) ;
#162 = EDGE_CURVE ( 'NONE', #171, #23, #71, .T. ) ;
#163 = DIRECTION ( 'NONE',  ( 0.000000000000000000, 0.000000000000000000, 1.000000000000000000 ) ) ;
#164 = DIRECTION ( 'NONE',  ( 0.000000000000000000, 0.000000000000000000, 1.000000000000000000 ) ) ;
#165 = PERSON_AND_ORGANIZATION_ROLE ( 'classification_officer' ) ;
#166 = DIRECTION ( 'NONE',  ( -0.000000000000000000, -0.000000000000000000, -1.000000000000000000 ) ) ;
#167 = FACE_OUTER_BOUND ( 'NONE', #170, .T. ) ;
#168 = VECTOR ( 'NONE', #183, 1000.000000000000000 ) ;
#169 = EDGE_LOOP ( 'NONE', ( #122, #232 ) ) ;
#170 = EDGE_LOOP ( 'NONE', ( #174, #103, #192, #49 ) ) ;
#171 = VERTEX_POINT ( 'NONE', #12 ) ;
#172 = PRODUCT_DEFINITION_SHAPE ( 'NONE', 'NONE',  #5 ) ;
#173 = AXIS2_PLACEMENT_3D ( 'NONE', #64, #107, #294 ) ;
#174 = ORIENTED_EDGE ( 'NONE', *, *, #60, .F. ) ;
#175 = EDGE_CURVE ( 'NONE', #193, #171, #109, .T. ) ;
#176 = AXIS2_PLACEMENT_3D ( 'NONE', #65, #163, #250 ) ;
#177 = COORDINATED_UNIVERSAL_TIME_OFFSET ( 1, 0, .AHEAD. ) ;
#178 = DIRECTION ( 'NONE',  ( -1.000000000000000000, 0.000000000000000000, 0.000000000000000000 ) ) ;
#179 = APPLICATION_PROTOCOL_DEFINITION ( 'international standard', 'config_control_design', 1994, #213 ) ;
#180 = CARTESIAN_POINT ( 'NONE',  ( 1.750000000000000000, 2.143131898507868297E-16, 3.199999999999980638 ) ) ;
#181 = DIRECTION ( 'NONE',  ( 1.000000000000000000, 0.000000000000000000, 0.000000000000000000 ) ) ;
#182 = DATE_AND_TIME ( #85, #198 ) ;
#183 = DIRECTION ( 'NONE',  ( -0.000000000000000000, -0.000000000000000000, -1.000000000000000000 ) ) ;
#184 = DIRECTION ( 'NONE',  ( 1.000000000000000000, 0.000000000000000000, 0.000000000000000000 ) ) ;
#185 = DATE_TIME_ROLE ( 'creation_date' ) ;
#186 = DIRECTION ( 'NONE',  ( -1.000000000000000000, 0.000000000000000000, 0.000000000000000000 ) ) ;
#187 = FACE_OUTER_BOUND ( 'NONE', #77, .T. ) ;
#188 = ADVANCED_FACE ( 'NONE', ( #58 ), #35, .T. ) ;
#189 = DIRECTION ( 'NONE',  ( -0.000000000000000000, -0.000000000000000000, -1.000000000000000000 ) ) ;
#190 = ORIENTED_EDGE ( 'NONE', *, *, #162, .F. ) ;
#191 = CIRCLE ( 'NONE', #264, 0.1999999999999998723 ) ;
#192 = ORIENTED_EDGE ( 'NONE', *, *, #38, .T. ) ;
#193 = VERTEX_POINT ( 'NONE', #180 ) ;
#194 = CARTESIAN_POINT ( 'NONE',  ( 0.000000000000000000, 0.000000000000000000, 3.199999999999980638 ) ) ;
#195 = CC_DESIGN_SECURITY_CLASSIFICATION ( #209, ( #73 ) ) ;
#196 = PRODUCT_RELATED_PRODUCT_CATEGORY ( 'detail', '', ( #218 ) ) ;
#197 = CIRCLE ( 'NONE', #240, 1.750000000000000000 ) ;
#198 = LOCAL_TIME ( 12, 27, 40.00000000000000000, #45 ) ;
#199 = AXIS2_PLACEMENT_3D ( 'NONE', #266, #229, #186 ) ;
#200 = CYLINDRICAL_SURFACE ( 'NONE', #3, 1.750000000000000000 ) ;
#201 = PERSON ( 'NEURÈENÝ', 'NEURÈENÝ', 'NEURÈENÝ', ('NEURÈENÝ'), ('NEURÈENÝ'), ('NEURÈENÝ') ) ;
#202 = DIRECTION ( 'NONE',  ( -0.000000000000000000, -0.000000000000000000, -1.000000000000000000 ) ) ;
#203 = DIRECTION ( 'NONE',  ( 0.000000000000000000, 0.000000000000000000, 1.000000000000000000 ) ) ;
#204 = DIRECTION ( 'NONE',  ( 0.000000000000000000, -1.000000000000000000, 0.000000000000000000 ) ) ;
#205 = CARTESIAN_POINT ( 'NONE',  ( 0.000000000000000000, 0.000000000000000000, 3.199999999999980638 ) ) ;
#206 = COORDINATED_UNIVERSAL_TIME_OFFSET ( 1, 0, .AHEAD. ) ;
#207 = CARTESIAN_POINT ( 'NONE',  ( 0.000000000000000000, 0.000000000000000000, 403.0000000000000000 ) ) ;
#208 = DIRECTION ( 'NONE',  ( 0.000000000000000000, 0.000000000000000000, 1.000000000000000000 ) ) ;
#209 = SECURITY_CLASSIFICATION ( '', '', #33 ) ;
#210 = ADVANCED_FACE ( 'NONE', ( #291 ), #90, .F. ) ;
#211 = CARTESIAN_POINT ( 'NONE',  ( 0.000000000000000000, 0.000000000000000000, 403.0000000000000000 ) ) ;
#212 =( NAMED_UNIT ( * ) PLANE_ANGLE_UNIT ( ) SI_UNIT ( $, .RADIAN. ) );
#213 = APPLICATION_CONTEXT ( 'configuration controlled 3d designs of mechanical parts and assemblies' ) ;
#214 = ORIENTED_EDGE ( 'NONE', *, *, #285, .T. ) ;
#215 = ORIENTED_EDGE ( 'NONE', *, *, #47, .T. ) ;
#216 = EDGE_LOOP ( 'NONE', ( #283, #259, #235, #74 ) ) ;
#217 = LINE ( 'NONE', #307, #24 ) ;
#218 = PRODUCT ( '1247', '1247', '', ( #137 ) ) ;
#219 = VERTEX_POINT ( 'NONE', #299 ) ;
#220 = EDGE_CURVE ( 'NONE', #23, #171, #17, .T. ) ;
#221 = DATE_TIME_ROLE ( 'classification_date' ) ;
#222 = PERSON_AND_ORGANIZATION_ROLE ( 'design_supplier' ) ;
#223 = ADVANCED_FACE ( 'NONE', ( #187 ), #280, .F. ) ;
#224 = CARTESIAN_POINT ( 'NONE',  ( -1.950000000000000178, 2.388061258337339136E-16, 2.999999999999990674 ) ) ;
#225 = AXIS2_PLACEMENT_3D ( 'NONE', #121, #164, #251 ) ;
#226 = CARTESIAN_POINT ( 'NONE',  ( 0.000000000000000000, 0.000000000000000000, 3.199999999999980638 ) ) ;
#227 = FACE_OUTER_BOUND ( 'NONE', #282, .T. ) ;
#228 = CARTESIAN_POINT ( 'NONE',  ( 1.750000000000000000, 2.143131898507868297E-16, 403.0000000000000000 ) ) ;
#229 = DIRECTION ( 'NONE',  ( -0.000000000000000000, -0.000000000000000000, -1.000000000000000000 ) ) ;
#230 = PERSON_AND_ORGANIZATION_ROLE ( 'creator' ) ;
#231 = DIRECTION ( 'NONE',  ( 1.000000000000000000, 0.000000000000000000, 0.000000000000000000 ) ) ;
#232 = ORIENTED_EDGE ( 'NONE', *, *, #220, .T. ) ;
#233 = VERTEX_POINT ( 'NONE', #277 ) ;
#234 = VERTEX_POINT ( 'NONE', #228 ) ;
#235 = ORIENTED_EDGE ( 'NONE', *, *, #1, .T. ) ;
#236 = ADVANCED_FACE ( 'NONE', ( #96 ), #63, .T. ) ;
#237 = AXIS2_PLACEMENT_3D ( 'NONE', #95, #244, #15 ) ;
#238 = APPROVAL_PERSON_ORGANIZATION ( #241, #32, #6 ) ;
#239 = CC_DESIGN_PERSON_AND_ORGANIZATION_ASSIGNMENT ( #270, #290, ( #5 ) ) ;
#240 = AXIS2_PLACEMENT_3D ( 'NONE', #194, #268, #272 ) ;
#241 = PERSON_AND_ORGANIZATION ( #201, #298 ) ;
#242 = EDGE_CURVE ( 'NONE', #193, #219, #247, .T. ) ;
#243 = APPROVAL_ROLE ( '' ) ;
#244 = DIRECTION ( 'NONE',  ( -0.000000000000000000, -0.000000000000000000, -1.000000000000000000 ) ) ;
#245 = AXIS2_PLACEMENT_3D ( 'NONE', #70, #36, #59 ) ;
#246 = FACE_OUTER_BOUND ( 'NONE', #216, .T. ) ;
#247 = CIRCLE ( 'NONE', #304, 1.750000000000000000 ) ;
#248 = CARTESIAN_POINT ( 'NONE',  ( 0.000000000000000000, 0.000000000000000000, 3.000000000000000000 ) ) ;
#249 = CALENDAR_DATE ( 2022, 7, 7 ) ;
#250 = DIRECTION ( 'NONE',  ( 1.000000000000000000, 0.000000000000000000, -0.000000000000000000 ) ) ;
#251 = DIRECTION ( 'NONE',  ( 1.000000000000000000, 0.000000000000000000, 0.000000000000000000 ) ) ;
#252 = DIRECTION ( 'NONE',  ( -0.000000000000000000, -0.000000000000000000, -1.000000000000000000 ) ) ;
#253 = ADVANCED_FACE ( 'NONE', ( #167 ), #159, .T. ) ;
#254 = CARTESIAN_POINT ( 'NONE',  ( 0.000000000000000000, 0.000000000000000000, 3.000000000000000000 ) ) ;
#255 = DIRECTION ( 'NONE',  ( 0.000000000000000000, 0.000000000000000000, 1.000000000000000000 ) ) ;
#256 = ORIENTED_EDGE ( 'NONE', *, *, #286, .T. ) ;
#257 = ADVANCED_BREP_SHAPE_REPRESENTATION ( '1247', ( #306, #173 ), #125 ) ;
#258 = ADVANCED_FACE ( 'NONE', ( #66, #11 ), #135, .T. ) ;
#259 = ORIENTED_EDGE ( 'NONE', *, *, #285, .F. ) ;
#260 = EDGE_LOOP ( 'NONE', ( #256, #281 ) ) ;
#261 = ORIENTED_EDGE ( 'NONE', *, *, #175, .T. ) ;
#262 = ADVANCED_FACE ( 'NONE', ( #41 ), #152, .F. ) ;
#263 = AXIS2_PLACEMENT_3D ( 'NONE', #44, #145, #69 ) ;
#264 = AXIS2_PLACEMENT_3D ( 'NONE', #120, #138, #18 ) ;
#265 = APPROVAL ( #42, 'NEURÈENÝ' ) ;
#266 = CARTESIAN_POINT ( 'NONE',  ( 0.000000000000000000, 0.000000000000000000, 403.0000000000000000 ) ) ;
#267 = APPLICATION_PROTOCOL_DEFINITION ( 'international standard', 'config_control_design', 1994, #81 ) ;
#268 = DIRECTION ( 'NONE',  ( 0.000000000000000000, 0.000000000000000000, 1.000000000000000000 ) ) ;
#269 = DIRECTION ( 'NONE',  ( 1.000000000000000000, 0.000000000000000000, 0.000000000000000000 ) ) ;
#270 = PERSON_AND_ORGANIZATION ( #201, #298 ) ;
#271 = AXIS2_PLACEMENT_3D ( 'NONE', #111, #139, #161 ) ;
#272 = DIRECTION ( 'NONE',  ( 1.000000000000000000, 0.000000000000000000, 0.000000000000000000 ) ) ;
#273 = DIRECTION ( 'NONE',  ( 1.000000000000000000, 0.000000000000000000, 0.000000000000000000 ) ) ;
#274 = PERSON_AND_ORGANIZATION ( #201, #298 ) ;
#275 = DIRECTION ( 'NONE',  ( 0.000000000000000000, 0.000000000000000000, 1.000000000000000000 ) ) ;
#276 =( LENGTH_UNIT ( ) NAMED_UNIT ( * ) SI_UNIT ( .MILLI., .METRE. ) );
#277 = CARTESIAN_POINT ( 'NONE',  ( -1.750000000000000000, 0.000000000000000000, 403.0000000000000000 ) ) ;
#278 = VERTEX_POINT ( 'NONE', #113 ) ;
#279 = AXIS2_PLACEMENT_3D ( 'NONE', #112, #204, #295 ) ;
#280 = TOROIDAL_SURFACE ( 'NONE', #39, 1.950000000000000178, 0.2000000000000000111 ) ;
#281 = ORIENTED_EDGE ( 'NONE', *, *, #60, .T. ) ;
#282 = EDGE_LOOP ( 'NONE', ( #126, #72, #76, #149 ) ) ;
#283 = ORIENTED_EDGE ( 'NONE', *, *, #124, .F. ) ;
#284 = LOCAL_TIME ( 12, 27, 40.00000000000000000, #206 ) ;
#285 = EDGE_CURVE ( 'NONE', #233, #234, #130, .T. ) ;
#286 = EDGE_CURVE ( 'NONE', #51, #97, #155, .T. ) ;
#287 = AXIS2_PLACEMENT_3D ( 'NONE', #254, #255, #293 ) ;
#288 = PERSON_AND_ORGANIZATION ( #201, #298 ) ;
#289 = EDGE_CURVE ( 'NONE', #26, #278, #146, .T. ) ;
#290 = PERSON_AND_ORGANIZATION_ROLE ( 'creator' ) ;
#291 = FACE_OUTER_BOUND ( 'NONE', #148, .T. ) ;
#292 = DIRECTION ( 'NONE',  ( -1.000000000000000000, 0.000000000000000000, 0.000000000000000000 ) ) ;
#293 = DIRECTION ( 'NONE',  ( 1.000000000000000000, 0.000000000000000000, -0.000000000000000000 ) ) ;
#294 = DIRECTION ( 'NONE',  ( 1.000000000000000000, 0.000000000000000000, 0.000000000000000000 ) ) ;
#295 = DIRECTION ( 'NONE',  ( 0.000000000000000000, 0.000000000000000000, -1.000000000000000000 ) ) ;
#296 = CARTESIAN_POINT ( 'NONE',  ( 0.000000000000000000, 0.000000000000000000, 403.0000000000000000 ) ) ;
#297 = DATE_AND_TIME ( #249, #84 ) ;
#298 = ORGANIZATION ( 'NEURÈENÝ', 'NEURÈENÝ', '' ) ;
#299 = CARTESIAN_POINT ( 'NONE',  ( -1.750000000000000000, 0.000000000000000000, 3.199999999999980638 ) ) ;
#300 = LINE ( 'NONE', #40, #168 ) ;
#301 = DIRECTION ( 'NONE',  ( 0.000000000000000000, 0.000000000000000000, 1.000000000000000000 ) ) ;
#302 = EDGE_LOOP ( 'NONE', ( #150, #50, #128, #22 ) ) ;
#303 = ORIENTED_EDGE ( 'NONE', *, *, #105, .F. ) ;
#304 = AXIS2_PLACEMENT_3D ( 'NONE', #226, #301, #273 ) ;
#305 = ORIENTED_EDGE ( 'NONE', *, *, #38, .F. ) ;
#306 = MANIFOLD_SOLID_BREP ( 'Zaoblit1', #30 ) ;
#307 = CARTESIAN_POINT ( 'NONE',  ( -1.750000000000000000, 0.000000000000000000, 403.0000000000000000 ) ) ;
ENDSEC;
END-ISO-10303-21;
