ISO-10303-21;
HEADER;
FILE_DESCRIPTION (( 'STEP AP203' ),
    '1' );
FILE_NAME ('4b7e.STEP',
    '2022-07-07T10:30:07',
    ( '' ),
    ( '' ),
    'SwSTEP 2.0',
    'SolidWorks 2019',
    '' );
FILE_SCHEMA (( 'CONFIG_CONTROL_DESIGN' ));
ENDSEC;

DATA;
#1 = CIRCLE ( 'NONE', #170, 3.000000000000000444 ) ;
#2 = DIRECTION ( 'NONE',  ( 0.000000000000000000, 0.000000000000000000, 1.000000000000000000 ) ) ;
#3 = CARTESIAN_POINT ( 'NONE',  ( 1.600000000000000089, 1.959434878635765230E-16, 3.199999999999994404 ) ) ;
#4 = LINE ( 'NONE', #164, #230 ) ;
#5 = EDGE_CURVE ( 'NONE', #250, #226, #42, .T. ) ;
#6 = CIRCLE ( 'NONE', #187, 1.600000000000000089 ) ;
#7 = PERSON_AND_ORGANIZATION ( #137, #37 ) ;
#8 = AXIS2_PLACEMENT_3D ( 'NONE', #180, #66, #265 ) ;
#9 = APPROVAL ( #221, 'NEURÈENÝ' ) ;
#10 = COORDINATED_UNIVERSAL_TIME_OFFSET ( 1, 0, .AHEAD. ) ;
#11 = COORDINATED_UNIVERSAL_TIME_OFFSET ( 1, 0, .AHEAD. ) ;
#12 = VECTOR ( 'NONE', #251, 1000.000000000000000 ) ;
#13 = ORIENTED_EDGE ( 'NONE', *, *, #93, .T. ) ;
#14 = PRODUCT_DEFINITION_SHAPE ( 'NONE', 'NONE',  #184 ) ;
#15 = PERSON_AND_ORGANIZATION ( #137, #37 ) ;
#16 = ORIENTED_EDGE ( 'NONE', *, *, #41, .F. ) ;
#17 = APPROVAL_DATE_TIME ( #218, #252 ) ;
#18 = CARTESIAN_POINT ( 'NONE',  ( -1.600000000000000089, 0.000000000000000000, 128.0000000000000000 ) ) ;
#19 = CLOSED_SHELL ( 'NONE', ( #92, #272, #22, #40, #244, #212, #114, #205, #303 ) ) ;
#20 = CC_DESIGN_APPROVAL ( #252, ( #65 ) ) ;
#21 = DIRECTION ( 'NONE',  ( 1.000000000000000000, 0.000000000000000000, 0.000000000000000000 ) ) ;
#22 = ADVANCED_FACE ( 'NONE', ( #281 ), #106, .T. ) ;
#23 = DIRECTION ( 'NONE',  ( -1.000000000000000000, 0.000000000000000000, 0.000000000000000000 ) ) ;
#24 = DIRECTION ( 'NONE',  ( -0.000000000000000000, -0.000000000000000000, -1.000000000000000000 ) ) ;
#25 = DIRECTION ( 'NONE',  ( 0.000000000000000000, 0.000000000000000000, 1.000000000000000000 ) ) ;
#26 = CARTESIAN_POINT ( 'NONE',  ( 0.000000000000000000, 0.000000000000000000, 3.199999999999994404 ) ) ;
#27 = DIRECTION ( 'NONE',  ( -0.000000000000000000, -0.000000000000000000, -1.000000000000000000 ) ) ;
#28 = DIRECTION ( 'NONE',  ( 1.000000000000000000, 0.000000000000000000, 0.000000000000000000 ) ) ;
#29 = AXIS2_PLACEMENT_3D ( 'NONE', #26, #47, #210 ) ;
#30 = DIRECTION ( 'NONE',  ( -1.000000000000000000, 0.000000000000000000, 0.000000000000000000 ) ) ;
#31 = PERSON_AND_ORGANIZATION_ROLE ( 'design_supplier' ) ;
#32 = CALENDAR_DATE ( 2022, 7, 7 ) ;
#33 = LOCAL_TIME ( 12, 30, 7.000000000000000000, #245 ) ;
#34 = PERSON_AND_ORGANIZATION ( #137, #37 ) ;
#35 = APPROVAL_ROLE ( '' ) ;
#36 = EDGE_LOOP ( 'NONE', ( #232, #195, #128, #79 ) ) ;
#37 = ORGANIZATION ( 'NEURÈENÝ', 'NEURÈENÝ', '' ) ;
#38 = ORIENTED_EDGE ( 'NONE', *, *, #154, .F. ) ;
#39 = VERTEX_POINT ( 'NONE', #204 ) ;
#40 = ADVANCED_FACE ( 'NONE', ( #179 ), #105, .T. ) ;
#41 = EDGE_CURVE ( 'NONE', #39, #255, #86, .T. ) ;
#42 = LINE ( 'NONE', #18, #258 ) ;
#43 = ORIENTED_EDGE ( 'NONE', *, *, #166, .T. ) ;
#44 = ORIENTED_EDGE ( 'NONE', *, *, #306, .T. ) ;
#45 = FACE_OUTER_BOUND ( 'NONE', #253, .T. ) ;
#46 = AXIS2_PLACEMENT_3D ( 'NONE', #74, #112, #49 ) ;
#47 = DIRECTION ( 'NONE',  ( 0.000000000000000000, 0.000000000000000000, 1.000000000000000000 ) ) ;
#48 = CARTESIAN_POINT ( 'NONE',  ( -1.600000000000000089, 0.000000000000000000, 128.0000000000000000 ) ) ;
#49 = DIRECTION ( 'NONE',  ( -1.000000000000000000, 0.000000000000000000, 0.000000000000000000 ) ) ;
#50 = CARTESIAN_POINT ( 'NONE',  ( 0.000000000000000000, 0.000000000000000000, 128.0000000000000000 ) ) ;
#51 = SECURITY_CLASSIFICATION_LEVEL ( 'unclassified' ) ;
#52 = EDGE_CURVE ( 'NONE', #231, #250, #6, .T. ) ;
#53 = EDGE_LOOP ( 'NONE', ( #134, #81, #59, #77 ) ) ;
#54 = AXIS2_PLACEMENT_3D ( 'NONE', #206, #275, #21 ) ;
#55 = DESIGN_CONTEXT ( 'detailed design', #56, 'design' ) ;
#56 = APPLICATION_CONTEXT ( 'configuration controlled 3d designs of mechanical parts and assemblies' ) ;
#57 = ORIENTED_EDGE ( 'NONE', *, *, #237, .T. ) ;
#58 = EDGE_CURVE ( 'NONE', #300, #84, #198, .T. ) ;
#59 = ORIENTED_EDGE ( 'NONE', *, *, #72, .T. ) ;
#60 = CARTESIAN_POINT ( 'NONE',  ( -1.800000000000000266, 2.204364238465236069E-16, 2.999999999999997335 ) ) ;
#61 = EDGE_CURVE ( 'NONE', #302, #255, #228, .T. ) ;
#62 = DIRECTION ( 'NONE',  ( 1.000000000000000000, 0.000000000000000000, 0.000000000000000000 ) ) ;
#63 = EDGE_CURVE ( 'NONE', #84, #300, #91, .T. ) ;
#64 = DIRECTION ( 'NONE',  ( 0.000000000000000000, 0.000000000000000000, 1.000000000000000000 ) ) ;
#65 = SECURITY_CLASSIFICATION ( '', '', #51 ) ;
#66 = DIRECTION ( 'NONE',  ( 0.000000000000000000, 0.000000000000000000, 1.000000000000000000 ) ) ;
#67 = ORIENTED_EDGE ( 'NONE', *, *, #227, .T. ) ;
#68 = CARTESIAN_POINT ( 'NONE',  ( 1.800000000000000266, 0.000000000000000000, 2.999999999999997335 ) ) ;
#69 = FACE_BOUND ( 'NONE', #257, .T. ) ;
#70 = CIRCLE ( 'NONE', #249, 3.000000000000000444 ) ;
#71 = CARTESIAN_POINT ( 'NONE',  ( -3.000000000000000444, 0.000000000000000000, 3.000000000000000000 ) ) ;
#72 = EDGE_CURVE ( 'NONE', #255, #302, #1, .T. ) ;
#73 = CYLINDRICAL_SURFACE ( 'NONE', #46, 1.600000000000000089 ) ;
#74 = CARTESIAN_POINT ( 'NONE',  ( 0.000000000000000000, 0.000000000000000000, 128.0000000000000000 ) ) ;
#75 = CIRCLE ( 'NONE', #266, 0.1999999999999998723 ) ;
#76 = APPROVAL_STATUS ( 'not_yet_approved' ) ;
#77 = ORIENTED_EDGE ( 'NONE', *, *, #237, .F. ) ;
#78 = CARTESIAN_POINT ( 'NONE',  ( 0.000000000000000000, 0.000000000000000000, 0.000000000000000000 ) ) ;
#79 = ORIENTED_EDGE ( 'NONE', *, *, #63, .F. ) ;
#80 = ORIENTED_EDGE ( 'NONE', *, *, #58, .F. ) ;
#81 = ORIENTED_EDGE ( 'NONE', *, *, #41, .T. ) ;
#82 = DIRECTION ( 'NONE',  ( 1.000000000000000000, 0.000000000000000000, 0.000000000000000000 ) ) ;
#83 = CIRCLE ( 'NONE', #280, 0.2000000000000000944 ) ;
#84 = VERTEX_POINT ( 'NONE', #60 ) ;
#85 = DIRECTION ( 'NONE',  ( -0.000000000000000000, -0.000000000000000000, -1.000000000000000000 ) ) ;
#86 = LINE ( 'NONE', #109, #12 ) ;
#87 = AXIS2_PLACEMENT_3D ( 'NONE', #211, #116, #30 ) ;
#88 = DIRECTION ( 'NONE',  ( -1.000000000000000000, 0.000000000000000000, 0.000000000000000000 ) ) ;
#89 = DIRECTION ( 'NONE',  ( 0.000000000000000000, 0.000000000000000000, 1.000000000000000000 ) ) ;
#90 = PLANE ( 'NONE',  #139 ) ;
#91 = CIRCLE ( 'NONE', #129, 1.800000000000000266 ) ;
#92 = ADVANCED_FACE ( 'NONE', ( #150 ), #238, .F. ) ;
#93 = EDGE_CURVE ( 'NONE', #226, #146, #181, .T. ) ;
#94 = CARTESIAN_POINT ( 'NONE',  ( 0.000000000000000000, 0.000000000000000000, 3.199999999999994404 ) ) ;
#95 = CIRCLE ( 'NONE', #111, 3.000000000000000444 ) ;
#96 = DIRECTION ( 'NONE',  ( 1.000000000000000000, 0.000000000000000000, -0.000000000000000000 ) ) ;
#97 = CARTESIAN_POINT ( 'NONE',  ( 1.800000000000000266, 0.000000000000000000, 3.199999999999994404 ) ) ;
#98 = CALENDAR_DATE ( 2022, 7, 7 ) ;
#99 = ORIENTED_EDGE ( 'NONE', *, *, #166, .F. ) ;
#100 = DATE_AND_TIME ( #147, #145 ) ;
#101 = APPLICATION_PROTOCOL_DEFINITION ( 'international standard', 'config_control_design', 1994, #56 ) ;
#102 = CIRCLE ( 'NONE', #287, 1.600000000000000089 ) ;
#103 = APPLICATION_PROTOCOL_DEFINITION ( 'international standard', 'config_control_design', 1994, #278 ) ;
#104 = ORIENTED_EDGE ( 'NONE', *, *, #52, .T. ) ;
#105 = CYLINDRICAL_SURFACE ( 'NONE', #176, 3.000000000000000444 ) ;
#106 = CYLINDRICAL_SURFACE ( 'NONE', #192, 3.000000000000000444 ) ;
#107 = LOCAL_TIME ( 12, 30, 7.000000000000000000, #143 ) ;
#108 = CARTESIAN_POINT ( 'NONE',  ( 0.000000000000000000, 0.000000000000000000, 3.000000000000000000 ) ) ;
#109 = CARTESIAN_POINT ( 'NONE',  ( 3.000000000000000444, 3.673940397442060361E-16, 3.000000000000000000 ) ) ;
#110 = DIRECTION ( 'NONE',  ( -0.000000000000000000, -0.000000000000000000, -1.000000000000000000 ) ) ;
#111 = AXIS2_PLACEMENT_3D ( 'NONE', #138, #286, #235 ) ;
#112 = DIRECTION ( 'NONE',  ( -0.000000000000000000, -0.000000000000000000, -1.000000000000000000 ) ) ;
#113 = CARTESIAN_POINT ( 'NONE',  ( 0.000000000000000000, 0.000000000000000000, 3.000000000000000000 ) ) ;
#114 = ADVANCED_FACE ( 'NONE', ( #45 ), #73, .T. ) ;
#115 = CC_DESIGN_PERSON_AND_ORGANIZATION_ASSIGNMENT ( #168, #199, ( #261 ) ) ;
#116 = DIRECTION ( 'NONE',  ( -0.000000000000000000, -0.000000000000000000, -1.000000000000000000 ) ) ;
#117 = CARTESIAN_POINT ( 'NONE',  ( 0.000000000000000000, 0.000000000000000000, 128.0000000000000000 ) ) ;
#118 = TOROIDAL_SURFACE ( 'NONE', #29, 1.800000000000000266, 0.2000000000000000111 ) ;
#119 = CARTESIAN_POINT ( 'NONE',  ( -3.000000000000000444, 0.000000000000000000, 0.000000000000000000 ) ) ;
#120 = PERSON_AND_ORGANIZATION ( #137, #37 ) ;
#121 = DATE_AND_TIME ( #246, #107 ) ;
#122 = EDGE_CURVE ( 'NONE', #182, #39, #70, .T. ) ;
#123 = PERSON_AND_ORGANIZATION ( #137, #37 ) ;
#124 = DATE_AND_TIME ( #215, #172 ) ;
#125 =( GEOMETRIC_REPRESENTATION_CONTEXT ( 3 ) GLOBAL_UNCERTAINTY_ASSIGNED_CONTEXT ( ( #167 ) ) GLOBAL_UNIT_ASSIGNED_CONTEXT ( ( #273, #173, #297 ) ) REPRESENTATION_CONTEXT ( 'NONE', 'WORKASPACE' ) );
#126 = ORIENTED_EDGE ( 'NONE', *, *, #72, .F. ) ;
#127 = CC_DESIGN_PERSON_AND_ORGANIZATION_ASSIGNMENT ( #15, #271, ( #131 ) ) ;
#128 = ORIENTED_EDGE ( 'NONE', *, *, #294, .T. ) ;
#129 = AXIS2_PLACEMENT_3D ( 'NONE', #108, #301, #274 ) ;
#130 = DIRECTION ( 'NONE',  ( 0.000000000000000000, 0.000000000000000000, 1.000000000000000000 ) ) ;
#131 = PRODUCT_DEFINITION_FORMATION_WITH_SPECIFIED_SOURCE ( 'LIBOVOLNÝ', '', #261, .NOT_KNOWN. ) ;
#132 = CARTESIAN_POINT ( 'NONE',  ( 0.000000000000000000, 0.000000000000000000, 0.000000000000000000 ) ) ;
#133 = ORIENTED_EDGE ( 'NONE', *, *, #93, .F. ) ;
#134 = ORIENTED_EDGE ( 'NONE', *, *, #306, .F. ) ;
#135 = AXIS2_PLACEMENT_3D ( 'NONE', #50, #2, #96 ) ;
#136 = DIRECTION ( 'NONE',  ( 1.000000000000000000, 0.000000000000000000, 0.000000000000000000 ) ) ;
#137 = PERSON ( 'NEURÈENÝ', 'NEURÈENÝ', 'NEURÈENÝ', ('NEURÈENÝ'), ('NEURÈENÝ'), ('NEURÈENÝ') ) ;
#138 = CARTESIAN_POINT ( 'NONE',  ( 0.000000000000000000, 0.000000000000000000, 3.000000000000000000 ) ) ;
#139 = AXIS2_PLACEMENT_3D ( 'NONE', #284, #267, #239 ) ;
#140 = CARTESIAN_POINT ( 'NONE',  ( -3.000000000000000444, 0.000000000000000000, 3.000000000000000000 ) ) ;
#141 = DIRECTION ( 'NONE',  ( -0.000000000000000000, -0.000000000000000000, -1.000000000000000000 ) ) ;
#142 = APPROVAL_ROLE ( '' ) ;
#143 = COORDINATED_UNIVERSAL_TIME_OFFSET ( 1, 0, .AHEAD. ) ;
#144 = ORIENTED_EDGE ( 'NONE', *, *, #5, .T. ) ;
#145 = LOCAL_TIME ( 12, 30, 7.000000000000000000, #10 ) ;
#146 = VERTEX_POINT ( 'NONE', #3 ) ;
#147 = CALENDAR_DATE ( 2022, 7, 7 ) ;
#148 = EDGE_LOOP ( 'NONE', ( #16, #233, #57, #151 ) ) ;
#149 = CIRCLE ( 'NONE', #200, 1.600000000000000089 ) ;
#150 = FACE_OUTER_BOUND ( 'NONE', #175, .T. ) ;
#151 = ORIENTED_EDGE ( 'NONE', *, *, #61, .T. ) ;
#152 = ADVANCED_BREP_SHAPE_REPRESENTATION ( '4b7e', ( #242, #178 ), #125 ) ;
#153 = DIRECTION ( 'NONE',  ( 1.000000000000000000, 0.000000000000000000, 0.000000000000000000 ) ) ;
#154 = EDGE_CURVE ( 'NONE', #250, #231, #149, .T. ) ;
#155 = APPROVAL_PERSON_ORGANIZATION ( #7, #163, #35 ) ;
#156 = EDGE_LOOP ( 'NONE', ( #202, #44 ) ) ;
#157 = EDGE_LOOP ( 'NONE', ( #254, #43, #67, #169 ) ) ;
#158 = CC_DESIGN_DATE_AND_TIME_ASSIGNMENT ( #194, #288, ( #65 ) ) ;
#159 = DIRECTION ( 'NONE',  ( 0.000000000000000000, 0.000000000000000000, 1.000000000000000000 ) ) ;
#160 = DIRECTION ( 'NONE',  ( 0.000000000000000000, -1.000000000000000000, 0.000000000000000000 ) ) ;
#161 = CARTESIAN_POINT ( 'NONE',  ( 0.000000000000000000, 0.000000000000000000, 3.000000000000000000 ) ) ;
#162 = CYLINDRICAL_SURFACE ( 'NONE', #87, 1.600000000000000089 ) ;
#163 = APPROVAL ( #243, 'NEURÈENÝ' ) ;
#164 = CARTESIAN_POINT ( 'NONE',  ( 1.600000000000000089, 1.959434878635765230E-16, 128.0000000000000000 ) ) ;
#165 = PERSON_AND_ORGANIZATION ( #137, #37 ) ;
#166 = EDGE_CURVE ( 'NONE', #231, #146, #4, .T. ) ;
#167 = UNCERTAINTY_MEASURE_WITH_UNIT (LENGTH_MEASURE( 1.000000000000000082E-05 ), #273, 'distance_accuracy_value', 'NONE');
#168 = PERSON_AND_ORGANIZATION ( #137, #37 ) ;
#169 = ORIENTED_EDGE ( 'NONE', *, *, #5, .F. ) ;
#170 = AXIS2_PLACEMENT_3D ( 'NONE', #132, #64, #304 ) ;
#171 = COORDINATED_UNIVERSAL_TIME_OFFSET ( 1, 0, .AHEAD. ) ;
#172 = LOCAL_TIME ( 12, 30, 7.000000000000000000, #171 ) ;
#173 =( NAMED_UNIT ( * ) PLANE_ANGLE_UNIT ( ) SI_UNIT ( $, .RADIAN. ) );
#174 = MECHANICAL_CONTEXT ( 'NONE', #278, 'mechanical' ) ;
#175 = EDGE_LOOP ( 'NONE', ( #133, #225, #80, #295 ) ) ;
#176 = AXIS2_PLACEMENT_3D ( 'NONE', #203, #110, #88 ) ;
#177 = CARTESIAN_POINT ( 'NONE',  ( 0.000000000000000000, 0.000000000000000000, 3.000000000000000000 ) ) ;
#178 = AXIS2_PLACEMENT_3D ( 'NONE', #78, #292, #298 ) ;
#179 = FACE_OUTER_BOUND ( 'NONE', #148, .T. ) ;
#180 = CARTESIAN_POINT ( 'NONE',  ( 0.000000000000000000, 0.000000000000000000, 3.199999999999994404 ) ) ;
#181 = CIRCLE ( 'NONE', #8, 1.600000000000000089 ) ;
#182 = VERTEX_POINT ( 'NONE', #140 ) ;
#183 = CARTESIAN_POINT ( 'NONE',  ( 0.000000000000000000, 0.000000000000000000, 0.000000000000000000 ) ) ;
#184 = PRODUCT_DEFINITION ( 'NEZNÁMÝ', '', #131, #55 ) ;
#185 = CARTESIAN_POINT ( 'NONE',  ( 1.600000000000000089, 1.959434878635765230E-16, 128.0000000000000000 ) ) ;
#186 = FACE_OUTER_BOUND ( 'NONE', #157, .T. ) ;
#187 = AXIS2_PLACEMENT_3D ( 'NONE', #207, #299, #82 ) ;
#188 = DIRECTION ( 'NONE',  ( -1.000000000000000000, 1.224646799147354686E-16, 0.000000000000000000 ) ) ;
#189 = LINE ( 'NONE', #71, #217 ) ;
#190 = CC_DESIGN_PERSON_AND_ORGANIZATION_ASSIGNMENT ( #34, #31, ( #131 ) ) ;
#191 = PLANE ( 'NONE',  #135 ) ;
#192 = AXIS2_PLACEMENT_3D ( 'NONE', #177, #85, #23 ) ;
#193 = CC_DESIGN_SECURITY_CLASSIFICATION ( #65, ( #131 ) ) ;
#194 = DATE_AND_TIME ( #98, #234 ) ;
#195 = ORIENTED_EDGE ( 'NONE', *, *, #227, .F. ) ;
#196 = ORIENTED_EDGE ( 'NONE', *, *, #154, .T. ) ;
#197 = APPROVAL_DATE_TIME ( #124, #163 ) ;
#198 = CIRCLE ( 'NONE', #54, 1.800000000000000266 ) ;
#199 = PERSON_AND_ORGANIZATION_ROLE ( 'design_owner' ) ;
#200 = AXIS2_PLACEMENT_3D ( 'NONE', #117, #89, #307 ) ;
#201 = PERSON_AND_ORGANIZATION_ROLE ( 'classification_officer' ) ;
#202 = ORIENTED_EDGE ( 'NONE', *, *, #122, .T. ) ;
#203 = CARTESIAN_POINT ( 'NONE',  ( 0.000000000000000000, 0.000000000000000000, 3.000000000000000000 ) ) ;
#204 = CARTESIAN_POINT ( 'NONE',  ( 3.000000000000000444, 3.673940397442060361E-16, 3.000000000000000000 ) ) ;
#205 = ADVANCED_FACE ( 'NONE', ( #241 ), #191, .T. ) ;
#206 = CARTESIAN_POINT ( 'NONE',  ( 0.000000000000000000, 0.000000000000000000, 3.000000000000000000 ) ) ;
#207 = CARTESIAN_POINT ( 'NONE',  ( 0.000000000000000000, 0.000000000000000000, 128.0000000000000000 ) ) ;
#208 = AXIS2_PLACEMENT_3D ( 'NONE', #161, #25, #209 ) ;
#209 = DIRECTION ( 'NONE',  ( 1.000000000000000000, 0.000000000000000000, -0.000000000000000000 ) ) ;
#210 = DIRECTION ( 'NONE',  ( 1.000000000000000000, 0.000000000000000000, 0.000000000000000000 ) ) ;
#211 = CARTESIAN_POINT ( 'NONE',  ( 0.000000000000000000, 0.000000000000000000, 128.0000000000000000 ) ) ;
#212 = ADVANCED_FACE ( 'NONE', ( #305 ), #90, .F. ) ;
#213 = DIRECTION ( 'NONE',  ( 0.000000000000000000, 0.000000000000000000, 1.000000000000000000 ) ) ;
#214 = FACE_OUTER_BOUND ( 'NONE', #36, .T. ) ;
#215 = CALENDAR_DATE ( 2022, 7, 7 ) ;
#216 = CC_DESIGN_PERSON_AND_ORGANIZATION_ASSIGNMENT ( #123, #201, ( #65 ) ) ;
#217 = VECTOR ( 'NONE', #141, 1000.000000000000000 ) ;
#218 = DATE_AND_TIME ( #32, #33 ) ;
#219 = ORIENTED_EDGE ( 'NONE', *, *, #61, .F. ) ;
#220 = PERSON_AND_ORGANIZATION_ROLE ( 'creator' ) ;
#221 = APPROVAL_STATUS ( 'not_yet_approved' ) ;
#222 = PERSON_AND_ORGANIZATION ( #137, #37 ) ;
#223 = ORIENTED_EDGE ( 'NONE', *, *, #63, .T. ) ;
#224 = SHAPE_DEFINITION_REPRESENTATION ( #14, #152 ) ;
#225 = ORIENTED_EDGE ( 'NONE', *, *, #291, .T. ) ;
#226 = VERTEX_POINT ( 'NONE', #262 ) ;
#227 = EDGE_CURVE ( 'NONE', #146, #226, #102, .T. ) ;
#228 = CIRCLE ( 'NONE', #293, 3.000000000000000444 ) ;
#229 = EDGE_LOOP ( 'NONE', ( #196, #104 ) ) ;
#230 = VECTOR ( 'NONE', #27, 1000.000000000000000 ) ;
#231 = VERTEX_POINT ( 'NONE', #185 ) ;
#232 = ORIENTED_EDGE ( 'NONE', *, *, #291, .F. ) ;
#233 = ORIENTED_EDGE ( 'NONE', *, *, #122, .F. ) ;
#234 = LOCAL_TIME ( 12, 30, 7.000000000000000000, #11 ) ;
#235 = DIRECTION ( 'NONE',  ( 1.000000000000000000, 0.000000000000000000, 0.000000000000000000 ) ) ;
#236 = CARTESIAN_POINT ( 'NONE',  ( -1.800000000000000266, 2.204364238465236069E-16, 3.199999999999994404 ) ) ;
#237 = EDGE_CURVE ( 'NONE', #182, #302, #189, .T. ) ;
#238 = TOROIDAL_SURFACE ( 'NONE', #277, 1.800000000000000266, 0.2000000000000000111 ) ;
#239 = DIRECTION ( 'NONE',  ( 1.000000000000000000, 0.000000000000000000, -0.000000000000000000 ) ) ;
#240 = APPROVAL_PERSON_ORGANIZATION ( #165, #252, #142 ) ;
#241 = FACE_OUTER_BOUND ( 'NONE', #229, .T. ) ;
#242 = MANIFOLD_SOLID_BREP ( 'Zaoblit1', #19 ) ;
#243 = APPROVAL_STATUS ( 'not_yet_approved' ) ;
#244 = ADVANCED_FACE ( 'NONE', ( #69, #285 ), #282, .T. ) ;
#245 = COORDINATED_UNIVERSAL_TIME_OFFSET ( 1, 0, .AHEAD. ) ;
#246 = CALENDAR_DATE ( 2022, 7, 7 ) ;
#247 = CC_DESIGN_DATE_AND_TIME_ASSIGNMENT ( #100, #248, ( #184 ) ) ;
#248 = DATE_TIME_ROLE ( 'creation_date' ) ;
#249 = AXIS2_PLACEMENT_3D ( 'NONE', #113, #159, #28 ) ;
#250 = VERTEX_POINT ( 'NONE', #48 ) ;
#251 = DIRECTION ( 'NONE',  ( -0.000000000000000000, -0.000000000000000000, -1.000000000000000000 ) ) ;
#252 = APPROVAL ( #76, 'NEURÈENÝ' ) ;
#253 = EDGE_LOOP ( 'NONE', ( #99, #38, #144, #13 ) ) ;
#254 = ORIENTED_EDGE ( 'NONE', *, *, #52, .F. ) ;
#255 = VERTEX_POINT ( 'NONE', #264 ) ;
#256 = PRODUCT_RELATED_PRODUCT_CATEGORY ( 'detail', '', ( #261 ) ) ;
#257 = EDGE_LOOP ( 'NONE', ( #290, #223 ) ) ;
#258 = VECTOR ( 'NONE', #24, 1000.000000000000000 ) ;
#259 = DIRECTION ( 'NONE',  ( 0.000000000000000000, 0.000000000000000000, -1.000000000000000000 ) ) ;
#260 = APPROVAL_PERSON_ORGANIZATION ( #222, #9, #269 ) ;
#261 = PRODUCT ( '4b7e', '4b7e', '', ( #174 ) ) ;
#262 = CARTESIAN_POINT ( 'NONE',  ( -1.600000000000000089, 0.000000000000000000, 3.199999999999994404 ) ) ;
#263 = CC_DESIGN_PERSON_AND_ORGANIZATION_ASSIGNMENT ( #120, #220, ( #184 ) ) ;
#264 = CARTESIAN_POINT ( 'NONE',  ( 3.000000000000000444, 3.673940397442060361E-16, 0.000000000000000000 ) ) ;
#265 = DIRECTION ( 'NONE',  ( 1.000000000000000000, 0.000000000000000000, 0.000000000000000000 ) ) ;
#266 = AXIS2_PLACEMENT_3D ( 'NONE', #236, #283, #188 ) ;
#267 = DIRECTION ( 'NONE',  ( 0.000000000000000000, 0.000000000000000000, 1.000000000000000000 ) ) ;
#268 = APPROVAL_DATE_TIME ( #121, #9 ) ;
#269 = APPROVAL_ROLE ( '' ) ;
#270 = CC_DESIGN_APPROVAL ( #163, ( #131 ) ) ;
#271 = PERSON_AND_ORGANIZATION_ROLE ( 'creator' ) ;
#272 = ADVANCED_FACE ( 'NONE', ( #186 ), #162, .T. ) ;
#273 =( LENGTH_UNIT ( ) NAMED_UNIT ( * ) SI_UNIT ( .MILLI., .METRE. ) );
#274 = DIRECTION ( 'NONE',  ( 1.000000000000000000, 0.000000000000000000, 0.000000000000000000 ) ) ;
#275 = DIRECTION ( 'NONE',  ( -0.000000000000000000, -0.000000000000000000, -1.000000000000000000 ) ) ;
#276 = CARTESIAN_POINT ( 'NONE',  ( 0.000000000000000000, 0.000000000000000000, 3.199999999999994404 ) ) ;
#277 = AXIS2_PLACEMENT_3D ( 'NONE', #276, #279, #153 ) ;
#278 = APPLICATION_CONTEXT ( 'configuration controlled 3d designs of mechanical parts and assemblies' ) ;
#279 = DIRECTION ( 'NONE',  ( 0.000000000000000000, 0.000000000000000000, 1.000000000000000000 ) ) ;
#280 = AXIS2_PLACEMENT_3D ( 'NONE', #97, #160, #259 ) ;
#281 = FACE_OUTER_BOUND ( 'NONE', #53, .T. ) ;
#282 = PLANE ( 'NONE',  #208 ) ;
#283 = DIRECTION ( 'NONE',  ( 1.224646799147353207E-16, 1.000000000000000000, -0.000000000000000000 ) ) ;
#284 = CARTESIAN_POINT ( 'NONE',  ( 0.000000000000000000, 0.000000000000000000, 0.000000000000000000 ) ) ;
#285 = FACE_OUTER_BOUND ( 'NONE', #156, .T. ) ;
#286 = DIRECTION ( 'NONE',  ( 0.000000000000000000, 0.000000000000000000, 1.000000000000000000 ) ) ;
#287 = AXIS2_PLACEMENT_3D ( 'NONE', #94, #213, #136 ) ;
#288 = DATE_TIME_ROLE ( 'classification_date' ) ;
#289 = EDGE_LOOP ( 'NONE', ( #219, #126 ) ) ;
#290 = ORIENTED_EDGE ( 'NONE', *, *, #58, .T. ) ;
#291 = EDGE_CURVE ( 'NONE', #226, #84, #75, .T. ) ;
#292 = DIRECTION ( 'NONE',  ( 0.000000000000000000, 0.000000000000000000, 1.000000000000000000 ) ) ;
#293 = AXIS2_PLACEMENT_3D ( 'NONE', #183, #130, #62 ) ;
#294 = EDGE_CURVE ( 'NONE', #146, #300, #83, .T. ) ;
#295 = ORIENTED_EDGE ( 'NONE', *, *, #294, .F. ) ;
#296 = CC_DESIGN_APPROVAL ( #9, ( #184 ) ) ;
#297 =( NAMED_UNIT ( * ) SI_UNIT ( $, .STERADIAN. ) SOLID_ANGLE_UNIT ( ) );
#298 = DIRECTION ( 'NONE',  ( 1.000000000000000000, 0.000000000000000000, 0.000000000000000000 ) ) ;
#299 = DIRECTION ( 'NONE',  ( 0.000000000000000000, 0.000000000000000000, 1.000000000000000000 ) ) ;
#300 = VERTEX_POINT ( 'NONE', #68 ) ;
#301 = DIRECTION ( 'NONE',  ( -0.000000000000000000, -0.000000000000000000, -1.000000000000000000 ) ) ;
#302 = VERTEX_POINT ( 'NONE', #119 ) ;
#303 = ADVANCED_FACE ( 'NONE', ( #214 ), #118, .F. ) ;
#304 = DIRECTION ( 'NONE',  ( 1.000000000000000000, 0.000000000000000000, 0.000000000000000000 ) ) ;
#305 = FACE_OUTER_BOUND ( 'NONE', #289, .T. ) ;
#306 = EDGE_CURVE ( 'NONE', #39, #182, #95, .T. ) ;
#307 = DIRECTION ( 'NONE',  ( 1.000000000000000000, 0.000000000000000000, 0.000000000000000000 ) ) ;
ENDSEC;
END-ISO-10303-21;
