ISO-10303-21;
HEADER;
FILE_DESCRIPTION (( 'STEP AP203' ),
    '1' );
FILE_NAME ('9810.STEP',
    '2022-07-07T10:22:33',
    ( '' ),
    ( '' ),
    'SwSTEP 2.0',
    'SolidWorks 2019',
    '' );
FILE_SCHEMA (( 'CONFIG_CONTROL_DESIGN' ));
ENDSEC;

DATA;
#1 = CARTESIAN_POINT ( 'NONE',  ( 0.000000000000000000, 0.000000000000000000, 103.0000000000000142 ) ) ;
#2 = CC_DESIGN_APPROVAL ( #119, ( #129 ) ) ;
#3 = DIRECTION ( 'NONE',  ( 0.000000000000000000, 0.000000000000000000, 1.000000000000000000 ) ) ;
#4 = SECURITY_CLASSIFICATION_LEVEL ( 'unclassified' ) ;
#5 = ORIENTED_EDGE ( 'NONE', *, *, #30, .F. ) ;
#6 = ORIENTED_EDGE ( 'NONE', *, *, #55, .F. ) ;
#7 = PERSON_AND_ORGANIZATION_ROLE ( 'classification_officer' ) ;
#8 = CARTESIAN_POINT ( 'NONE',  ( -2.250000000000000000, 0.000000000000000000, 103.0000000000000142 ) ) ;
#9 = CALENDAR_DATE ( 2022, 7, 7 ) ;
#10 = CIRCLE ( 'NONE', #229, 2.250000000000000000 ) ;
#11 = ORIENTED_EDGE ( 'NONE', *, *, #256, .T. ) ;
#12 = DIRECTION ( 'NONE',  ( 1.000000000000000000, 0.000000000000000000, 0.000000000000000000 ) ) ;
#13 = ORIENTED_EDGE ( 'NONE', *, *, #45, .T. ) ;
#14 =( NAMED_UNIT ( * ) SI_UNIT ( $, .STERADIAN. ) SOLID_ANGLE_UNIT ( ) );
#15 = DIRECTION ( 'NONE',  ( -0.000000000000000000, -0.000000000000000000, -1.000000000000000000 ) ) ;
#16 = VERTEX_POINT ( 'NONE', #99 ) ;
#17 = CARTESIAN_POINT ( 'NONE',  ( 2.250000000000000000, 2.755455298081544285E-16, 103.0000000000000142 ) ) ;
#18 = DIRECTION ( 'NONE',  ( -1.000000000000000000, 0.000000000000000000, 0.000000000000000000 ) ) ;
#19 = MECHANICAL_CONTEXT ( 'NONE', #29, 'mechanical' ) ;
#20 = DIRECTION ( 'NONE',  ( 0.000000000000000000, 0.000000000000000000, 1.000000000000000000 ) ) ;
#21 = APPROVAL_ROLE ( '' ) ;
#22 = AXIS2_PLACEMENT_3D ( 'NONE', #110, #271, #243 ) ;
#23 = DIRECTION ( 'NONE',  ( 1.000000000000000000, 0.000000000000000000, 0.000000000000000000 ) ) ;
#24 = CARTESIAN_POINT ( 'NONE',  ( -4.000000000000000000, 0.000000000000000000, 3.000000000000000000 ) ) ;
#25 = LOCAL_TIME ( 12, 22, 33.00000000000000000, #67 ) ;
#26 = ORIENTED_EDGE ( 'NONE', *, *, #72, .F. ) ;
#27 = EDGE_LOOP ( 'NONE', ( #149, #234 ) ) ;
#28 = DIRECTION ( 'NONE',  ( 0.000000000000000000, 0.000000000000000000, 1.000000000000000000 ) ) ;
#29 = APPLICATION_CONTEXT ( 'configuration controlled 3d designs of mechanical parts and assemblies' ) ;
#30 = EDGE_CURVE ( 'NONE', #16, #147, #172, .T. ) ;
#31 = LOCAL_TIME ( 12, 22, 33.00000000000000000, #205 ) ;
#32 = PLANE ( 'NONE',  #107 ) ;
#33 = ORIENTED_EDGE ( 'NONE', *, *, #95, .T. ) ;
#34 = ADVANCED_FACE ( 'NONE', ( #190 ), #120, .T. ) ;
#35 = FACE_OUTER_BOUND ( 'NONE', #212, .T. ) ;
#36 = DIRECTION ( 'NONE',  ( -0.000000000000000000, -0.000000000000000000, -1.000000000000000000 ) ) ;
#37 = CARTESIAN_POINT ( 'NONE',  ( 0.000000000000000000, 0.000000000000000000, 3.000000000000000000 ) ) ;
#38 = APPROVAL_STATUS ( 'not_yet_approved' ) ;
#39 = CARTESIAN_POINT ( 'NONE',  ( 0.000000000000000000, 0.000000000000000000, 103.0000000000000142 ) ) ;
#40 = CC_DESIGN_PERSON_AND_ORGANIZATION_ASSIGNMENT ( #93, #246, ( #269 ) ) ;
#41 = PERSON_AND_ORGANIZATION ( #158, #228 ) ;
#42 = APPROVAL_ROLE ( '' ) ;
#43 = CIRCLE ( 'NONE', #76, 4.000000000000000000 ) ;
#44 = EDGE_CURVE ( 'NONE', #101, #79, #49, .T. ) ;
#45 = EDGE_CURVE ( 'NONE', #124, #100, #43, .T. ) ;
#46 = CLOSED_SHELL ( 'NONE', ( #160, #218, #170, #233, #240, #227, #34, #121, #202 ) ) ;
#47 = AXIS2_PLACEMENT_3D ( 'NONE', #109, #90, #197 ) ;
#48 = PLANE ( 'NONE',  #92 ) ;
#49 = LINE ( 'NONE', #209, #245 ) ;
#50 = ORIENTED_EDGE ( 'NONE', *, *, #55, .T. ) ;
#51 = DATE_AND_TIME ( #294, #25 ) ;
#52 = EDGE_LOOP ( 'NONE', ( #126, #13 ) ) ;
#53 = CARTESIAN_POINT ( 'NONE',  ( 0.000000000000000000, 0.000000000000000000, 0.000000000000000000 ) ) ;
#54 = PERSON_AND_ORGANIZATION_ROLE ( 'creator' ) ;
#55 = EDGE_CURVE ( 'NONE', #290, #162, #165, .T. ) ;
#56 = APPROVAL ( #259, 'NEURÈENÝ' ) ;
#57 = EDGE_CURVE ( 'NONE', #143, #167, #118, .T. ) ;
#58 = CARTESIAN_POINT ( 'NONE',  ( 2.250000000000000000, 2.755455298081544285E-16, 3.199999999999994404 ) ) ;
#59 = ORIENTED_EDGE ( 'NONE', *, *, #57, .F. ) ;
#60 = CALENDAR_DATE ( 2022, 7, 7 ) ;
#61 = APPROVAL_PERSON_ORGANIZATION ( #301, #255, #203 ) ;
#62 = LINE ( 'NONE', #66, #217 ) ;
#63 = DIRECTION ( 'NONE',  ( -1.000000000000000000, 1.224646799147353207E-16, 0.000000000000000000 ) ) ;
#64 = DESIGN_CONTEXT ( 'detailed design', #307, 'design' ) ;
#65 = CARTESIAN_POINT ( 'NONE',  ( 0.000000000000000000, 0.000000000000000000, 103.0000000000000142 ) ) ;
#66 = CARTESIAN_POINT ( 'NONE',  ( 4.000000000000000000, 4.898587196589412829E-16, 3.000000000000000000 ) ) ;
#67 = COORDINATED_UNIVERSAL_TIME_OFFSET ( 1, 0, .AHEAD. ) ;
#68 = CARTESIAN_POINT ( 'NONE',  ( 0.000000000000000000, 0.000000000000000000, 3.199999999999994404 ) ) ;
#69 = DATE_TIME_ROLE ( 'creation_date' ) ;
#70 = SECURITY_CLASSIFICATION ( '', '', #4 ) ;
#71 = APPROVAL_DATE_TIME ( #279, #119 ) ;
#72 = EDGE_CURVE ( 'NONE', #100, #124, #155, .T. ) ;
#73 = DIRECTION ( 'NONE',  ( 1.000000000000000000, 0.000000000000000000, 0.000000000000000000 ) ) ;
#74 = DIRECTION ( 'NONE',  ( 1.000000000000000000, 0.000000000000000000, 0.000000000000000000 ) ) ;
#75 = CARTESIAN_POINT ( 'NONE',  ( 4.000000000000000000, 4.898587196589412829E-16, 3.000000000000000000 ) ) ;
#76 = AXIS2_PLACEMENT_3D ( 'NONE', #106, #28, #74 ) ;
#77 = EDGE_LOOP ( 'NONE', ( #216, #5 ) ) ;
#78 = LOCAL_TIME ( 12, 22, 33.00000000000000000, #266 ) ;
#79 = VERTEX_POINT ( 'NONE', #283 ) ;
#80 = CARTESIAN_POINT ( 'NONE',  ( -4.000000000000000000, 0.000000000000000000, 3.000000000000000000 ) ) ;
#81 = PRODUCT_DEFINITION ( 'NEZNÁMÝ', '', #129, #64 ) ;
#82 = DIRECTION ( 'NONE',  ( 1.000000000000000000, 0.000000000000000000, 0.000000000000000000 ) ) ;
#83 = ORIENTED_EDGE ( 'NONE', *, *, #173, .T. ) ;
#84 = DIRECTION ( 'NONE',  ( 0.000000000000000000, 0.000000000000000000, 1.000000000000000000 ) ) ;
#85 = ORIENTED_EDGE ( 'NONE', *, *, #251, .F. ) ;
#86 = DIRECTION ( 'NONE',  ( 1.224646799147353207E-16, 1.000000000000000000, -0.000000000000000000 ) ) ;
#87 = CYLINDRICAL_SURFACE ( 'NONE', #96, 4.000000000000000000 ) ;
#88 = CALENDAR_DATE ( 2022, 7, 7 ) ;
#89 = SHAPE_DEFINITION_REPRESENTATION ( #267, #210 ) ;
#90 = DIRECTION ( 'NONE',  ( 0.000000000000000000, 0.000000000000000000, 1.000000000000000000 ) ) ;
#91 = FACE_OUTER_BOUND ( 'NONE', #175, .T. ) ;
#92 = AXIS2_PLACEMENT_3D ( 'NONE', #1, #3, #288 ) ;
#93 = PERSON_AND_ORGANIZATION ( #158, #228 ) ;
#94 = LOCAL_TIME ( 12, 22, 33.00000000000000000, #115 ) ;
#95 = EDGE_CURVE ( 'NONE', #100, #147, #194, .T. ) ;
#96 = AXIS2_PLACEMENT_3D ( 'NONE', #237, #204, #156 ) ;
#97 = ORIENTED_EDGE ( 'NONE', *, *, #95, .F. ) ;
#98 = CC_DESIGN_DATE_AND_TIME_ASSIGNMENT ( #179, #195, ( #70 ) ) ;
#99 = CARTESIAN_POINT ( 'NONE',  ( 4.000000000000000000, 4.898587196589412829E-16, 0.000000000000000000 ) ) ;
#100 = VERTEX_POINT ( 'NONE', #80 ) ;
#101 = VERTEX_POINT ( 'NONE', #8 ) ;
#102 = DIRECTION ( 'NONE',  ( 1.000000000000000000, 0.000000000000000000, 0.000000000000000000 ) ) ;
#103 = EDGE_CURVE ( 'NONE', #162, #79, #140, .T. ) ;
#104 = COORDINATED_UNIVERSAL_TIME_OFFSET ( 1, 0, .AHEAD. ) ;
#105 = ORIENTED_EDGE ( 'NONE', *, *, #196, .F. ) ;
#106 = CARTESIAN_POINT ( 'NONE',  ( 0.000000000000000000, 0.000000000000000000, 3.000000000000000000 ) ) ;
#107 = AXIS2_PLACEMENT_3D ( 'NONE', #174, #20, #300 ) ;
#108 = ORIENTED_EDGE ( 'NONE', *, *, #44, .T. ) ;
#109 = CARTESIAN_POINT ( 'NONE',  ( 0.000000000000000000, 0.000000000000000000, 0.000000000000000000 ) ) ;
#110 = CARTESIAN_POINT ( 'NONE',  ( 0.000000000000000000, 0.000000000000000000, 0.000000000000000000 ) ) ;
#111 = FACE_OUTER_BOUND ( 'NONE', #297, .T. ) ;
#112 = CARTESIAN_POINT ( 'NONE',  ( 0.000000000000000000, 0.000000000000000000, 3.000000000000000000 ) ) ;
#113 = DATE_AND_TIME ( #60, #94 ) ;
#114 = DIRECTION ( 'NONE',  ( 0.000000000000000000, 0.000000000000000000, 1.000000000000000000 ) ) ;
#115 = COORDINATED_UNIVERSAL_TIME_OFFSET ( 1, 0, .AHEAD. ) ;
#116 = AXIS2_PLACEMENT_3D ( 'NONE', #39, #304, #130 ) ;
#117 = AXIS2_PLACEMENT_3D ( 'NONE', #277, #263, #12 ) ;
#118 = CIRCLE ( 'NONE', #289, 2.449999999999999734 ) ;
#119 = APPROVAL ( #138, 'NEURÈENÝ' ) ;
#120 = CYLINDRICAL_SURFACE ( 'NONE', #280, 2.250000000000000000 ) ;
#121 = ADVANCED_FACE ( 'NONE', ( #254 ), #48, .T. ) ;
#122 = CIRCLE ( 'NONE', #278, 2.250000000000000000 ) ;
#123 = CARTESIAN_POINT ( 'NONE',  ( 0.000000000000000000, 0.000000000000000000, 3.199999999999994404 ) ) ;
#124 = VERTEX_POINT ( 'NONE', #75 ) ;
#125 = DIRECTION ( 'NONE',  ( -0.000000000000000000, -0.000000000000000000, -1.000000000000000000 ) ) ;
#126 = ORIENTED_EDGE ( 'NONE', *, *, #72, .T. ) ;
#127 = ORIENTED_EDGE ( 'NONE', *, *, #281, .T. ) ;
#128 = ORIENTED_EDGE ( 'NONE', *, *, #285, .T. ) ;
#129 = PRODUCT_DEFINITION_FORMATION_WITH_SPECIFIED_SOURCE ( 'LIBOVOLNÝ', '', #269, .NOT_KNOWN. ) ;
#130 = DIRECTION ( 'NONE',  ( -1.000000000000000000, 0.000000000000000000, 0.000000000000000000 ) ) ;
#131 = ORIENTED_EDGE ( 'NONE', *, *, #45, .F. ) ;
#132 = CC_DESIGN_PERSON_AND_ORGANIZATION_ASSIGNMENT ( #166, #54, ( #129 ) ) ;
#133 = FACE_OUTER_BOUND ( 'NONE', #77, .T. ) ;
#134 = FACE_OUTER_BOUND ( 'NONE', #264, .T. ) ;
#135 = PERSON_AND_ORGANIZATION ( #158, #228 ) ;
#136 = APPROVAL_PERSON_ORGANIZATION ( #41, #119, #21 ) ;
#137 = FACE_BOUND ( 'NONE', #231, .T. ) ;
#138 = APPROVAL_STATUS ( 'not_yet_approved' ) ;
#139 = CIRCLE ( 'NONE', #200, 2.449999999999999734 ) ;
#140 = CIRCLE ( 'NONE', #215, 2.250000000000000000 ) ;
#141 = AXIS2_PLACEMENT_3D ( 'NONE', #68, #114, #221 ) ;
#142 = EDGE_CURVE ( 'NONE', #290, #101, #253, .T. ) ;
#143 = VERTEX_POINT ( 'NONE', #275 ) ;
#144 = ORIENTED_EDGE ( 'NONE', *, *, #173, .F. ) ;
#145 = DIRECTION ( 'NONE',  ( 1.000000000000000000, 0.000000000000000000, 0.000000000000000000 ) ) ;
#146 = EDGE_LOOP ( 'NONE', ( #6, #85, #108, #11 ) ) ;
#147 = VERTEX_POINT ( 'NONE', #152 ) ;
#148 = CARTESIAN_POINT ( 'NONE',  ( 2.449999999999999734, 0.000000000000000000, 2.999999999999997335 ) ) ;
#149 = ORIENTED_EDGE ( 'NONE', *, *, #251, .T. ) ;
#150 = DIRECTION ( 'NONE',  ( 1.000000000000000000, 0.000000000000000000, 0.000000000000000000 ) ) ;
#151 = CC_DESIGN_PERSON_AND_ORGANIZATION_ASSIGNMENT ( #226, #7, ( #70 ) ) ;
#152 = CARTESIAN_POINT ( 'NONE',  ( -4.000000000000000000, 0.000000000000000000, 0.000000000000000000 ) ) ;
#153 = DIRECTION ( 'NONE',  ( 0.000000000000000000, 0.000000000000000000, 1.000000000000000000 ) ) ;
#154 = DIRECTION ( 'NONE',  ( -0.000000000000000000, -0.000000000000000000, -1.000000000000000000 ) ) ;
#155 = CIRCLE ( 'NONE', #192, 4.000000000000000000 ) ;
#156 = DIRECTION ( 'NONE',  ( -1.000000000000000000, 0.000000000000000000, 0.000000000000000000 ) ) ;
#157 = CARTESIAN_POINT ( 'NONE',  ( 0.000000000000000000, 0.000000000000000000, 0.000000000000000000 ) ) ;
#158 = PERSON ( 'NEURÈENÝ', 'NEURÈENÝ', 'NEURÈENÝ', ('NEURÈENÝ'), ('NEURÈENÝ'), ('NEURÈENÝ') ) ;
#159 = CC_DESIGN_APPROVAL ( #56, ( #70 ) ) ;
#160 = ADVANCED_FACE ( 'NONE', ( #247 ), #252, .F. ) ;
#161 = CC_DESIGN_SECURITY_CLASSIFICATION ( #70, ( #129 ) ) ;
#162 = VERTEX_POINT ( 'NONE', #58 ) ;
#163 = MANIFOLD_SOLID_BREP ( 'Zaoblit1', #46 ) ;
#164 = DIRECTION ( 'NONE',  ( 0.000000000000000000, 0.000000000000000000, 1.000000000000000000 ) ) ;
#165 = LINE ( 'NONE', #168, #208 ) ;
#166 = PERSON_AND_ORGANIZATION ( #158, #228 ) ;
#167 = VERTEX_POINT ( 'NONE', #148 ) ;
#168 = CARTESIAN_POINT ( 'NONE',  ( 2.250000000000000000, 2.755455298081544285E-16, 103.0000000000000142 ) ) ;
#169 = DIRECTION ( 'NONE',  ( 0.000000000000000000, 0.000000000000000000, 1.000000000000000000 ) ) ;
#170 = ADVANCED_FACE ( 'NONE', ( #134 ), #272, .T. ) ;
#171 = CC_DESIGN_DATE_AND_TIME_ASSIGNMENT ( #113, #69, ( #81 ) ) ;
#172 = CIRCLE ( 'NONE', #265, 4.000000000000000000 ) ;
#173 = EDGE_CURVE ( 'NONE', #162, #167, #186, .T. ) ;
#174 = CARTESIAN_POINT ( 'NONE',  ( 0.000000000000000000, 0.000000000000000000, 3.000000000000000000 ) ) ;
#175 = EDGE_LOOP ( 'NONE', ( #222, #26, #33, #198 ) ) ;
#176 = APPLICATION_PROTOCOL_DEFINITION ( 'international standard', 'config_control_design', 1994, #307 ) ;
#177 = CARTESIAN_POINT ( 'NONE',  ( 0.000000000000000000, 0.000000000000000000, 3.199999999999994404 ) ) ;
#178 =( LENGTH_UNIT ( ) NAMED_UNIT ( * ) SI_UNIT ( .MILLI., .METRE. ) );
#179 = DATE_AND_TIME ( #9, #248 ) ;
#180 = PERSON_AND_ORGANIZATION ( #158, #228 ) ;
#181 = DIRECTION ( 'NONE',  ( 1.000000000000000000, 0.000000000000000000, 0.000000000000000000 ) ) ;
#182 = CALENDAR_DATE ( 2022, 7, 7 ) ;
#183 =( GEOMETRIC_REPRESENTATION_CONTEXT ( 3 ) GLOBAL_UNCERTAINTY_ASSIGNED_CONTEXT ( ( #298 ) ) GLOBAL_UNIT_ASSIGNED_CONTEXT ( ( #178, #220, #14 ) ) REPRESENTATION_CONTEXT ( 'NONE', 'WORKASPACE' ) );
#184 = AXIS2_PLACEMENT_3D ( 'NONE', #303, #86, #63 ) ;
#185 = DIRECTION ( 'NONE',  ( 0.000000000000000000, 0.000000000000000000, 1.000000000000000000 ) ) ;
#186 = CIRCLE ( 'NONE', #305, 0.2000000000000000944 ) ;
#187 = CIRCLE ( 'NONE', #22, 4.000000000000000000 ) ;
#188 = ORIENTED_EDGE ( 'NONE', *, *, #196, .T. ) ;
#189 = APPROVAL_DATE_TIME ( #51, #56 ) ;
#190 = FACE_OUTER_BOUND ( 'NONE', #146, .T. ) ;
#191 = CARTESIAN_POINT ( 'NONE',  ( 0.000000000000000000, 0.000000000000000000, 3.000000000000000000 ) ) ;
#192 = AXIS2_PLACEMENT_3D ( 'NONE', #191, #164, #23 ) ;
#193 = AXIS2_PLACEMENT_3D ( 'NONE', #157, #153, #150 ) ;
#194 = LINE ( 'NONE', #24, #276 ) ;
#195 = DATE_TIME_ROLE ( 'classification_date' ) ;
#196 = EDGE_CURVE ( 'NONE', #167, #143, #139, .T. ) ;
#197 = DIRECTION ( 'NONE',  ( 1.000000000000000000, 0.000000000000000000, -0.000000000000000000 ) ) ;
#198 = ORIENTED_EDGE ( 'NONE', *, *, #299, .T. ) ;
#199 = FACE_OUTER_BOUND ( 'NONE', #52, .T. ) ;
#200 = AXIS2_PLACEMENT_3D ( 'NONE', #37, #15, #82 ) ;
#201 = CARTESIAN_POINT ( 'NONE',  ( 2.449999999999999734, 0.000000000000000000, 3.199999999999994404 ) ) ;
#202 = ADVANCED_FACE ( 'NONE', ( #35 ), #306, .F. ) ;
#203 = APPROVAL_ROLE ( '' ) ;
#204 = DIRECTION ( 'NONE',  ( -0.000000000000000000, -0.000000000000000000, -1.000000000000000000 ) ) ;
#205 = COORDINATED_UNIVERSAL_TIME_OFFSET ( 1, 0, .AHEAD. ) ;
#206 = CC_DESIGN_PERSON_AND_ORGANIZATION_ASSIGNMENT ( #274, #287, ( #129 ) ) ;
#207 = APPROVAL_PERSON_ORGANIZATION ( #180, #56, #42 ) ;
#208 = VECTOR ( 'NONE', #232, 1000.000000000000000 ) ;
#209 = CARTESIAN_POINT ( 'NONE',  ( -2.250000000000000000, 0.000000000000000000, 103.0000000000000142 ) ) ;
#210 = ADVANCED_BREP_SHAPE_REPRESENTATION ( '9810', ( #163, #193 ), #183 ) ;
#211 = CARTESIAN_POINT ( 'NONE',  ( 0.000000000000000000, 0.000000000000000000, 103.0000000000000142 ) ) ;
#212 = EDGE_LOOP ( 'NONE', ( #286, #291, #83, #59 ) ) ;
#213 = DIRECTION ( 'NONE',  ( -1.000000000000000000, 0.000000000000000000, 0.000000000000000000 ) ) ;
#214 = DIRECTION ( 'NONE',  ( -0.000000000000000000, -0.000000000000000000, -1.000000000000000000 ) ) ;
#215 = AXIS2_PLACEMENT_3D ( 'NONE', #123, #230, #73 ) ;
#216 = ORIENTED_EDGE ( 'NONE', *, *, #299, .F. ) ;
#217 = VECTOR ( 'NONE', #36, 1000.000000000000000 ) ;
#218 = ADVANCED_FACE ( 'NONE', ( #111 ), #225, .T. ) ;
#219 = DIRECTION ( 'NONE',  ( 1.000000000000000000, 0.000000000000000000, 0.000000000000000000 ) ) ;
#220 =( NAMED_UNIT ( * ) PLANE_ANGLE_UNIT ( ) SI_UNIT ( $, .RADIAN. ) );
#221 = DIRECTION ( 'NONE',  ( 1.000000000000000000, 0.000000000000000000, 0.000000000000000000 ) ) ;
#222 = ORIENTED_EDGE ( 'NONE', *, *, #281, .F. ) ;
#223 = APPLICATION_PROTOCOL_DEFINITION ( 'international standard', 'config_control_design', 1994, #29 ) ;
#224 = PERSON_AND_ORGANIZATION_ROLE ( 'creator' ) ;
#225 = CYLINDRICAL_SURFACE ( 'NONE', #116, 2.250000000000000000 ) ;
#226 = PERSON_AND_ORGANIZATION ( #158, #228 ) ;
#227 = ADVANCED_FACE ( 'NONE', ( #133 ), #302, .F. ) ;
#228 = ORGANIZATION ( 'NEURÈENÝ', 'NEURÈENÝ', '' ) ;
#229 = AXIS2_PLACEMENT_3D ( 'NONE', #296, #84, #268 ) ;
#230 = DIRECTION ( 'NONE',  ( 0.000000000000000000, 0.000000000000000000, 1.000000000000000000 ) ) ;
#231 = EDGE_LOOP ( 'NONE', ( #188, #261 ) ) ;
#232 = DIRECTION ( 'NONE',  ( -0.000000000000000000, -0.000000000000000000, -1.000000000000000000 ) ) ;
#233 = ADVANCED_FACE ( 'NONE', ( #91 ), #87, .T. ) ;
#234 = ORIENTED_EDGE ( 'NONE', *, *, #142, .T. ) ;
#235 = DIRECTION ( 'NONE',  ( -0.000000000000000000, -0.000000000000000000, -1.000000000000000000 ) ) ;
#236 = EDGE_LOOP ( 'NONE', ( #258, #128, #105, #144 ) ) ;
#237 = CARTESIAN_POINT ( 'NONE',  ( 0.000000000000000000, 0.000000000000000000, 3.000000000000000000 ) ) ;
#238 = AXIS2_PLACEMENT_3D ( 'NONE', #112, #154, #18 ) ;
#239 = CC_DESIGN_APPROVAL ( #255, ( #81 ) ) ;
#240 = ADVANCED_FACE ( 'NONE', ( #137, #199 ), #32, .T. ) ;
#241 = DIRECTION ( 'NONE',  ( 0.000000000000000000, 0.000000000000000000, -1.000000000000000000 ) ) ;
#242 = ORIENTED_EDGE ( 'NONE', *, *, #44, .F. ) ;
#243 = DIRECTION ( 'NONE',  ( 1.000000000000000000, 0.000000000000000000, 0.000000000000000000 ) ) ;
#244 = DIRECTION ( 'NONE',  ( 0.000000000000000000, 0.000000000000000000, 1.000000000000000000 ) ) ;
#245 = VECTOR ( 'NONE', #235, 1000.000000000000000 ) ;
#246 = PERSON_AND_ORGANIZATION_ROLE ( 'design_owner' ) ;
#247 = FACE_OUTER_BOUND ( 'NONE', #236, .T. ) ;
#248 = LOCAL_TIME ( 12, 22, 33.00000000000000000, #104 ) ;
#249 = DATE_AND_TIME ( #88, #78 ) ;
#250 = PRODUCT_RELATED_PRODUCT_CATEGORY ( 'detail', '', ( #269 ) ) ;
#251 = EDGE_CURVE ( 'NONE', #101, #290, #122, .T. ) ;
#252 = TOROIDAL_SURFACE ( 'NONE', #141, 2.449999999999999734, 0.2000000000000000111 ) ;
#253 = CIRCLE ( 'NONE', #117, 2.250000000000000000 ) ;
#254 = FACE_OUTER_BOUND ( 'NONE', #27, .T. ) ;
#255 = APPROVAL ( #38, 'NEURÈENÝ' ) ;
#256 = EDGE_CURVE ( 'NONE', #79, #162, #10, .T. ) ;
#257 = DIRECTION ( 'NONE',  ( -0.000000000000000000, -0.000000000000000000, -1.000000000000000000 ) ) ;
#258 = ORIENTED_EDGE ( 'NONE', *, *, #256, .F. ) ;
#259 = APPROVAL_STATUS ( 'not_yet_approved' ) ;
#260 = ORIENTED_EDGE ( 'NONE', *, *, #30, .T. ) ;
#261 = ORIENTED_EDGE ( 'NONE', *, *, #57, .T. ) ;
#262 = ORIENTED_EDGE ( 'NONE', *, *, #142, .F. ) ;
#263 = DIRECTION ( 'NONE',  ( 0.000000000000000000, 0.000000000000000000, 1.000000000000000000 ) ) ;
#264 = EDGE_LOOP ( 'NONE', ( #131, #127, #260, #97 ) ) ;
#265 = AXIS2_PLACEMENT_3D ( 'NONE', #53, #185, #145 ) ;
#266 = COORDINATED_UNIVERSAL_TIME_OFFSET ( 1, 0, .AHEAD. ) ;
#267 = PRODUCT_DEFINITION_SHAPE ( 'NONE', 'NONE',  #81 ) ;
#268 = DIRECTION ( 'NONE',  ( 1.000000000000000000, 0.000000000000000000, 0.000000000000000000 ) ) ;
#269 = PRODUCT ( '9810', '9810', '', ( #19 ) ) ;
#270 = ORIENTED_EDGE ( 'NONE', *, *, #103, .T. ) ;
#271 = DIRECTION ( 'NONE',  ( 0.000000000000000000, 0.000000000000000000, 1.000000000000000000 ) ) ;
#272 = CYLINDRICAL_SURFACE ( 'NONE', #238, 4.000000000000000000 ) ;
#273 = APPROVAL_DATE_TIME ( #249, #255 ) ;
#274 = PERSON_AND_ORGANIZATION ( #158, #228 ) ;
#275 = CARTESIAN_POINT ( 'NONE',  ( -2.449999999999999734, 3.000384657911015370E-16, 2.999999999999997335 ) ) ;
#276 = VECTOR ( 'NONE', #257, 1000.000000000000000 ) ;
#277 = CARTESIAN_POINT ( 'NONE',  ( 0.000000000000000000, 0.000000000000000000, 103.0000000000000142 ) ) ;
#278 = AXIS2_PLACEMENT_3D ( 'NONE', #65, #244, #181 ) ;
#279 = DATE_AND_TIME ( #182, #31 ) ;
#280 = AXIS2_PLACEMENT_3D ( 'NONE', #211, #125, #213 ) ;
#281 = EDGE_CURVE ( 'NONE', #124, #16, #62, .T. ) ;
#282 = CC_DESIGN_PERSON_AND_ORGANIZATION_ASSIGNMENT ( #135, #224, ( #81 ) ) ;
#283 = CARTESIAN_POINT ( 'NONE',  ( -2.250000000000000000, 0.000000000000000000, 3.199999999999994404 ) ) ;
#284 = CIRCLE ( 'NONE', #184, 0.2000000000000000944 ) ;
#285 = EDGE_CURVE ( 'NONE', #79, #143, #284, .T. ) ;
#286 = ORIENTED_EDGE ( 'NONE', *, *, #285, .F. ) ;
#287 = PERSON_AND_ORGANIZATION_ROLE ( 'design_supplier' ) ;
#288 = DIRECTION ( 'NONE',  ( 1.000000000000000000, 0.000000000000000000, -0.000000000000000000 ) ) ;
#289 = AXIS2_PLACEMENT_3D ( 'NONE', #293, #214, #102 ) ;
#290 = VERTEX_POINT ( 'NONE', #17 ) ;
#291 = ORIENTED_EDGE ( 'NONE', *, *, #103, .F. ) ;
#292 = AXIS2_PLACEMENT_3D ( 'NONE', #177, #169, #219 ) ;
#293 = CARTESIAN_POINT ( 'NONE',  ( 0.000000000000000000, 0.000000000000000000, 3.000000000000000000 ) ) ;
#294 = CALENDAR_DATE ( 2022, 7, 7 ) ;
#295 = DIRECTION ( 'NONE',  ( 0.000000000000000000, -1.000000000000000000, 0.000000000000000000 ) ) ;
#296 = CARTESIAN_POINT ( 'NONE',  ( 0.000000000000000000, 0.000000000000000000, 3.199999999999994404 ) ) ;
#297 = EDGE_LOOP ( 'NONE', ( #262, #50, #270, #242 ) ) ;
#298 = UNCERTAINTY_MEASURE_WITH_UNIT (LENGTH_MEASURE( 1.000000000000000082E-05 ), #178, 'distance_accuracy_value', 'NONE');
#299 = EDGE_CURVE ( 'NONE', #147, #16, #187, .T. ) ;
#300 = DIRECTION ( 'NONE',  ( 1.000000000000000000, 0.000000000000000000, -0.000000000000000000 ) ) ;
#301 = PERSON_AND_ORGANIZATION ( #158, #228 ) ;
#302 = PLANE ( 'NONE',  #47 ) ;
#303 = CARTESIAN_POINT ( 'NONE',  ( -2.449999999999999734, 3.000384657911015370E-16, 3.199999999999994404 ) ) ;
#304 = DIRECTION ( 'NONE',  ( -0.000000000000000000, -0.000000000000000000, -1.000000000000000000 ) ) ;
#305 = AXIS2_PLACEMENT_3D ( 'NONE', #201, #295, #241 ) ;
#306 = TOROIDAL_SURFACE ( 'NONE', #292, 2.449999999999999734, 0.2000000000000000111 ) ;
#307 = APPLICATION_CONTEXT ( 'configuration controlled 3d designs of mechanical parts and assemblies' ) ;
ENDSEC;
END-ISO-10303-21;
