ISO-10303-21;
HEADER;
FILE_DESCRIPTION (( 'STEP AP203' ),
    '1' );
FILE_NAME ('068c.STEP',
    '2022-07-07T09:42:17',
    ( '' ),
    ( '' ),
    'SwSTEP 2.0',
    'SolidWorks 2019',
    '' );
FILE_SCHEMA (( 'CONFIG_CONTROL_DESIGN' ));
ENDSEC;

DATA;
#1 = SECURITY_CLASSIFICATION ( '', '', #77 ) ;
#2 = PERSON_AND_ORGANIZATION ( #118, #295 ) ;
#3 = EDGE_LOOP ( 'NONE', ( #275, #43 ) ) ;
#4 = ORIENTED_EDGE ( 'NONE', *, *, #131, .F. ) ;
#5 = CARTESIAN_POINT ( 'NONE',  ( 0.000000000000000000, 0.000000000000000000, 0.000000000000000000 ) ) ;
#6 = AXIS2_PLACEMENT_3D ( 'NONE', #34, #221, #126 ) ;
#7 = PERSON_AND_ORGANIZATION_ROLE ( 'classification_officer' ) ;
#8 = APPROVAL ( #138, 'NEURÈENÝ' ) ;
#9 = ORIENTED_EDGE ( 'NONE', *, *, #273, .F. ) ;
#10 = CARTESIAN_POINT ( 'NONE',  ( 0.000000000000000000, 0.000000000000000000, 407.0000000000000000 ) ) ;
#11 = DIRECTION ( 'NONE',  ( 1.000000000000000000, 0.000000000000000000, 0.000000000000000000 ) ) ;
#12 = CC_DESIGN_PERSON_AND_ORGANIZATION_ASSIGNMENT ( #260, #255, ( #248 ) ) ;
#13 = CARTESIAN_POINT ( 'NONE',  ( 0.000000000000000000, 0.000000000000000000, 7.000000000000000000 ) ) ;
#14 = CIRCLE ( 'NONE', #106, 0.1999999999999996503 ) ;
#15 = CIRCLE ( 'NONE', #29, 6.450000000000000178 ) ;
#16 = DIRECTION ( 'NONE',  ( -1.000000000000000000, 1.224646799147353454E-16, 0.000000000000000000 ) ) ;
#17 = ORIENTED_EDGE ( 'NONE', *, *, #89, .T. ) ;
#18 = EDGE_CURVE ( 'NONE', #103, #58, #262, .T. ) ;
#19 = VECTOR ( 'NONE', #48, 1000.000000000000000 ) ;
#20 = DIRECTION ( 'NONE',  ( -1.000000000000000000, 0.000000000000000000, 0.000000000000000000 ) ) ;
#21 = ORIENTED_EDGE ( 'NONE', *, *, #271, .F. ) ;
#22 = CALENDAR_DATE ( 2022, 7, 7 ) ;
#23 = PERSON_AND_ORGANIZATION_ROLE ( 'creator' ) ;
#24 = ADVANCED_FACE ( 'NONE', ( #211, #165 ), #188, .T. ) ;
#25 = DATE_AND_TIME ( #22, #71 ) ;
#26 = APPLICATION_CONTEXT ( 'configuration controlled 3d designs of mechanical parts and assemblies' ) ;
#27 = PERSON_AND_ORGANIZATION_ROLE ( 'design_supplier' ) ;
#28 = CARTESIAN_POINT ( 'NONE',  ( 0.000000000000000000, 0.000000000000000000, 0.000000000000000000 ) ) ;
#29 = AXIS2_PLACEMENT_3D ( 'NONE', #209, #205, #70 ) ;
#30 = ORIENTED_EDGE ( 'NONE', *, *, #185, .F. ) ;
#31 = COORDINATED_UNIVERSAL_TIME_OFFSET ( 1, 0, .AHEAD. ) ;
#32 = DIRECTION ( 'NONE',  ( 1.000000000000000000, 0.000000000000000000, -0.000000000000000000 ) ) ;
#33 = EDGE_CURVE ( 'NONE', #58, #103, #249, .T. ) ;
#34 = CARTESIAN_POINT ( 'NONE',  ( 0.000000000000000000, 0.000000000000000000, 0.000000000000000000 ) ) ;
#35 = AXIS2_PLACEMENT_3D ( 'NONE', #44, #137, #140 ) ;
#36 = DIRECTION ( 'NONE',  ( -0.000000000000000000, -0.000000000000000000, -1.000000000000000000 ) ) ;
#37 = CC_DESIGN_PERSON_AND_ORGANIZATION_ASSIGNMENT ( #301, #92, ( #101 ) ) ;
#38 = DIRECTION ( 'NONE',  ( 0.000000000000000000, 0.000000000000000000, 1.000000000000000000 ) ) ;
#39 = CIRCLE ( 'NONE', #152, 0.1999999999999996503 ) ;
#40 = CC_DESIGN_APPROVAL ( #296, ( #1 ) ) ;
#41 = LOCAL_TIME ( 11, 42, 17.00000000000000000, #259 ) ;
#42 = CARTESIAN_POINT ( 'NONE',  ( -6.250000000000000000, 0.000000000000000000, 407.0000000000000000 ) ) ;
#43 = ORIENTED_EDGE ( 'NONE', *, *, #66, .T. ) ;
#44 = CARTESIAN_POINT ( 'NONE',  ( 0.000000000000000000, 0.000000000000000000, 7.199999999999984190 ) ) ;
#45 = COORDINATED_UNIVERSAL_TIME_OFFSET ( 1, 0, .AHEAD. ) ;
#46 =( GEOMETRIC_REPRESENTATION_CONTEXT ( 3 ) GLOBAL_UNCERTAINTY_ASSIGNED_CONTEXT ( ( #110 ) ) GLOBAL_UNIT_ASSIGNED_CONTEXT ( ( #51, #235, #231 ) ) REPRESENTATION_CONTEXT ( 'NONE', 'WORKASPACE' ) );
#47 = FACE_OUTER_BOUND ( 'NONE', #56, .T. ) ;
#48 = DIRECTION ( 'NONE',  ( -0.000000000000000000, -0.000000000000000000, -1.000000000000000000 ) ) ;
#49 = EDGE_CURVE ( 'NONE', #103, #286, #39, .T. ) ;
#50 = DIRECTION ( 'NONE',  ( 0.000000000000000000, 0.000000000000000000, 1.000000000000000000 ) ) ;
#51 =( LENGTH_UNIT ( ) NAMED_UNIT ( * ) SI_UNIT ( .MILLI., .METRE. ) );
#52 = SHAPE_DEFINITION_REPRESENTATION ( #203, #215 ) ;
#53 = VECTOR ( 'NONE', #82, 1000.000000000000000 ) ;
#54 = CYLINDRICAL_SURFACE ( 'NONE', #60, 6.250000000000000000 ) ;
#55 = APPROVAL_DATE_TIME ( #120, #296 ) ;
#56 = EDGE_LOOP ( 'NONE', ( #240, #300, #129, #148 ) ) ;
#57 = DIRECTION ( 'NONE',  ( -1.000000000000000000, 0.000000000000000000, 0.000000000000000000 ) ) ;
#58 = VERTEX_POINT ( 'NONE', #94 ) ;
#59 = DIRECTION ( 'NONE',  ( -0.000000000000000000, -0.000000000000000000, -1.000000000000000000 ) ) ;
#60 = AXIS2_PLACEMENT_3D ( 'NONE', #201, #291, #245 ) ;
#61 = CC_DESIGN_DATE_AND_TIME_ASSIGNMENT ( #168, #73, ( #1 ) ) ;
#62 = VERTEX_POINT ( 'NONE', #42 ) ;
#63 = PLANE ( 'NONE',  #247 ) ;
#64 = CYLINDRICAL_SURFACE ( 'NONE', #299, 9.000000000000000000 ) ;
#65 = AXIS2_PLACEMENT_3D ( 'NONE', #147, #181, #11 ) ;
#66 = EDGE_CURVE ( 'NONE', #195, #62, #99, .T. ) ;
#67 = AXIS2_PLACEMENT_3D ( 'NONE', #135, #227, #20 ) ;
#68 = DIRECTION ( 'NONE',  ( 0.000000000000000000, 0.000000000000000000, 1.000000000000000000 ) ) ;
#69 = LINE ( 'NONE', #113, #178 ) ;
#70 = DIRECTION ( 'NONE',  ( 1.000000000000000000, 0.000000000000000000, 0.000000000000000000 ) ) ;
#71 = LOCAL_TIME ( 11, 42, 17.00000000000000000, #45 ) ;
#72 = ORIENTED_EDGE ( 'NONE', *, *, #273, .T. ) ;
#73 = DATE_TIME_ROLE ( 'classification_date' ) ;
#74 = APPLICATION_PROTOCOL_DEFINITION ( 'international standard', 'config_control_design', 1994, #253 ) ;
#75 = EDGE_CURVE ( 'NONE', #62, #103, #69, .T. ) ;
#76 = ORIENTED_EDGE ( 'NONE', *, *, #173, .T. ) ;
#77 = SECURITY_CLASSIFICATION_LEVEL ( 'unclassified' ) ;
#78 = EDGE_LOOP ( 'NONE', ( #98, #76 ) ) ;
#79 = CARTESIAN_POINT ( 'NONE',  ( 6.250000000000000000, 7.654042494670957606E-16, 407.0000000000000000 ) ) ;
#80 = ORIENTED_EDGE ( 'NONE', *, *, #282, .T. ) ;
#81 = ADVANCED_FACE ( 'NONE', ( #93 ), #192, .F. ) ;
#82 = DIRECTION ( 'NONE',  ( -0.000000000000000000, -0.000000000000000000, -1.000000000000000000 ) ) ;
#83 = VERTEX_POINT ( 'NONE', #226 ) ;
#84 = DIRECTION ( 'NONE',  ( 0.000000000000000000, 0.000000000000000000, 1.000000000000000000 ) ) ;
#85 = CLOSED_SHELL ( 'NONE', ( #115, #237, #200, #88, #24, #158, #122, #242, #81 ) ) ;
#86 = CC_DESIGN_SECURITY_CLASSIFICATION ( #1, ( #280 ) ) ;
#87 = DIRECTION ( 'NONE',  ( 0.000000000000000000, 0.000000000000000000, -1.000000000000000000 ) ) ;
#88 = ADVANCED_FACE ( 'NONE', ( #225 ), #206, .T. ) ;
#89 = EDGE_CURVE ( 'NONE', #146, #286, #15, .T. ) ;
#90 = EDGE_LOOP ( 'NONE', ( #9, #4, #230, #238 ) ) ;
#91 = DIRECTION ( 'NONE',  ( 1.000000000000000000, 0.000000000000000000, -0.000000000000000000 ) ) ;
#92 = PERSON_AND_ORGANIZATION_ROLE ( 'creator' ) ;
#93 = FACE_OUTER_BOUND ( 'NONE', #116, .T. ) ;
#94 = CARTESIAN_POINT ( 'NONE',  ( 6.250000000000000000, 7.654042494670957606E-16, 7.199999999999984190 ) ) ;
#95 = APPROVAL_ROLE ( '' ) ;
#96 = APPROVAL_DATE_TIME ( #213, #306 ) ;
#97 = CARTESIAN_POINT ( 'NONE',  ( -6.450000000000000178, 7.898971854500428692E-16, 6.999999999999992006 ) ) ;
#98 = ORIENTED_EDGE ( 'NONE', *, *, #271, .T. ) ;
#99 = CIRCLE ( 'NONE', #184, 6.250000000000000000 ) ;
#100 = DIRECTION ( 'NONE',  ( 1.000000000000000000, 0.000000000000000000, 0.000000000000000000 ) ) ;
#101 = PRODUCT_DEFINITION ( 'NEZNÁMÝ', '', #280, #298 ) ;
#102 = DIRECTION ( 'NONE',  ( 1.000000000000000000, 0.000000000000000000, 0.000000000000000000 ) ) ;
#103 = VERTEX_POINT ( 'NONE', #302 ) ;
#104 = FACE_OUTER_BOUND ( 'NONE', #159, .T. ) ;
#105 = DIRECTION ( 'NONE',  ( 0.000000000000000000, 0.000000000000000000, 1.000000000000000000 ) ) ;
#106 = AXIS2_PLACEMENT_3D ( 'NONE', #270, #198, #87 ) ;
#107 = LOCAL_TIME ( 11, 42, 17.00000000000000000, #252 ) ;
#108 = CC_DESIGN_PERSON_AND_ORGANIZATION_ASSIGNMENT ( #285, #27, ( #280 ) ) ;
#109 = CARTESIAN_POINT ( 'NONE',  ( -6.450000000000000178, 7.898971854500428692E-16, 7.199999999999984190 ) ) ;
#110 = UNCERTAINTY_MEASURE_WITH_UNIT (LENGTH_MEASURE( 1.000000000000000082E-05 ), #51, 'distance_accuracy_value', 'NONE');
#111 = ORIENTED_EDGE ( 'NONE', *, *, #150, .T. ) ;
#112 = AXIS2_PLACEMENT_3D ( 'NONE', #5, #244, #239 ) ;
#113 = CARTESIAN_POINT ( 'NONE',  ( -6.250000000000000000, 0.000000000000000000, 407.0000000000000000 ) ) ;
#114 = LINE ( 'NONE', #281, #19 ) ;
#115 = ADVANCED_FACE ( 'NONE', ( #47 ), #272, .F. ) ;
#116 = EDGE_LOOP ( 'NONE', ( #177, #194, #216, #190 ) ) ;
#117 = DATE_AND_TIME ( #136, #107 ) ;
#118 = PERSON ( 'NEURÈENÝ', 'NEURÈENÝ', 'NEURÈENÝ', ('NEURÈENÝ'), ('NEURÈENÝ'), ('NEURÈENÝ') ) ;
#119 = CALENDAR_DATE ( 2022, 7, 7 ) ;
#120 = DATE_AND_TIME ( #143, #171 ) ;
#121 = APPROVAL_PERSON_ORGANIZATION ( #234, #296, #264 ) ;
#122 = ADVANCED_FACE ( 'NONE', ( #128 ), #266, .T. ) ;
#123 = CARTESIAN_POINT ( 'NONE',  ( -9.000000000000000000, 0.000000000000000000, 0.000000000000000000 ) ) ;
#124 = CALENDAR_DATE ( 2022, 7, 7 ) ;
#125 = AXIS2_PLACEMENT_3D ( 'NONE', #156, #36, #269 ) ;
#126 = DIRECTION ( 'NONE',  ( 1.000000000000000000, 0.000000000000000000, -0.000000000000000000 ) ) ;
#127 = ORIENTED_EDGE ( 'NONE', *, *, #33, .T. ) ;
#128 = FACE_OUTER_BOUND ( 'NONE', #90, .T. ) ;
#129 = ORIENTED_EDGE ( 'NONE', *, *, #89, .F. ) ;
#130 = CARTESIAN_POINT ( 'NONE',  ( -9.000000000000000000, 0.000000000000000000, 7.000000000000000000 ) ) ;
#131 = EDGE_CURVE ( 'NONE', #62, #195, #179, .T. ) ;
#132 = AXIS2_PLACEMENT_3D ( 'NONE', #186, #68, #279 ) ;
#133 = ORIENTED_EDGE ( 'NONE', *, *, #219, .T. ) ;
#134 = DIRECTION ( 'NONE',  ( 1.000000000000000000, 0.000000000000000000, 0.000000000000000000 ) ) ;
#135 = CARTESIAN_POINT ( 'NONE',  ( 0.000000000000000000, 0.000000000000000000, 7.000000000000000000 ) ) ;
#136 = CALENDAR_DATE ( 2022, 7, 7 ) ;
#137 = DIRECTION ( 'NONE',  ( 0.000000000000000000, 0.000000000000000000, 1.000000000000000000 ) ) ;
#138 = APPROVAL_STATUS ( 'not_yet_approved' ) ;
#139 = APPROVAL_STATUS ( 'not_yet_approved' ) ;
#140 = DIRECTION ( 'NONE',  ( 1.000000000000000000, 0.000000000000000000, 0.000000000000000000 ) ) ;
#141 = DIRECTION ( 'NONE',  ( 0.000000000000000000, 0.000000000000000000, 1.000000000000000000 ) ) ;
#142 = LINE ( 'NONE', #207, #182 ) ;
#143 = CALENDAR_DATE ( 2022, 7, 7 ) ;
#144 = ORIENTED_EDGE ( 'NONE', *, *, #75, .F. ) ;
#145 = CIRCLE ( 'NONE', #214, 9.000000000000000000 ) ;
#146 = VERTEX_POINT ( 'NONE', #149 ) ;
#147 = CARTESIAN_POINT ( 'NONE',  ( 0.000000000000000000, 0.000000000000000000, 7.199999999999984190 ) ) ;
#148 = ORIENTED_EDGE ( 'NONE', *, *, #167, .F. ) ;
#149 = CARTESIAN_POINT ( 'NONE',  ( 6.450000000000000178, 0.000000000000000000, 6.999999999999992006 ) ) ;
#150 = EDGE_CURVE ( 'NONE', #151, #83, #145, .T. ) ;
#151 = VERTEX_POINT ( 'NONE', #123 ) ;
#152 = AXIS2_PLACEMENT_3D ( 'NONE', #109, #250, #16 ) ;
#153 = DIRECTION ( 'NONE',  ( -1.000000000000000000, 0.000000000000000000, 0.000000000000000000 ) ) ;
#154 = EDGE_LOOP ( 'NONE', ( #161, #21, #169, #111 ) ) ;
#155 = CARTESIAN_POINT ( 'NONE',  ( 0.000000000000000000, 0.000000000000000000, 407.0000000000000000 ) ) ;
#156 = CARTESIAN_POINT ( 'NONE',  ( 0.000000000000000000, 0.000000000000000000, 7.000000000000000000 ) ) ;
#157 = AXIS2_PLACEMENT_3D ( 'NONE', #13, #162, #193 ) ;
#158 = ADVANCED_FACE ( 'NONE', ( #241 ), #220, .F. ) ;
#159 = EDGE_LOOP ( 'NONE', ( #276, #72, #127, #144 ) ) ;
#160 = CC_DESIGN_DATE_AND_TIME_ASSIGNMENT ( #117, #212, ( #101 ) ) ;
#161 = ORIENTED_EDGE ( 'NONE', *, *, #282, .F. ) ;
#162 = DIRECTION ( 'NONE',  ( 0.000000000000000000, 0.000000000000000000, 1.000000000000000000 ) ) ;
#163 = CARTESIAN_POINT ( 'NONE',  ( 0.000000000000000000, 0.000000000000000000, 407.0000000000000000 ) ) ;
#164 = APPROVAL_PERSON_ORGANIZATION ( #2, #8, #277 ) ;
#165 = FACE_OUTER_BOUND ( 'NONE', #78, .T. ) ;
#166 = DIRECTION ( 'NONE',  ( 1.000000000000000000, 0.000000000000000000, 0.000000000000000000 ) ) ;
#167 = EDGE_CURVE ( 'NONE', #58, #146, #14, .T. ) ;
#168 = DATE_AND_TIME ( #124, #41 ) ;
#169 = ORIENTED_EDGE ( 'NONE', *, *, #185, .T. ) ;
#170 = CIRCLE ( 'NONE', #125, 6.450000000000000178 ) ;
#171 = LOCAL_TIME ( 11, 42, 17.00000000000000000, #31 ) ;
#172 = PERSON_AND_ORGANIZATION ( #118, #295 ) ;
#173 = EDGE_CURVE ( 'NONE', #197, #265, #204, .T. ) ;
#174 = CARTESIAN_POINT ( 'NONE',  ( 0.000000000000000000, 0.000000000000000000, 7.000000000000000000 ) ) ;
#175 = ORIENTED_EDGE ( 'NONE', *, *, #223, .T. ) ;
#176 = CARTESIAN_POINT ( 'NONE',  ( 9.000000000000000000, 1.102182119232617714E-15, 7.000000000000000000 ) ) ;
#177 = ORIENTED_EDGE ( 'NONE', *, *, #49, .F. ) ;
#178 = VECTOR ( 'NONE', #254, 1000.000000000000000 ) ;
#179 = CIRCLE ( 'NONE', #229, 6.250000000000000000 ) ;
#180 = FACE_OUTER_BOUND ( 'NONE', #3, .T. ) ;
#181 = DIRECTION ( 'NONE',  ( 0.000000000000000000, 0.000000000000000000, 1.000000000000000000 ) ) ;
#182 = VECTOR ( 'NONE', #210, 1000.000000000000000 ) ;
#183 = DIRECTION ( 'NONE',  ( 0.000000000000000000, 0.000000000000000000, 1.000000000000000000 ) ) ;
#184 = AXIS2_PLACEMENT_3D ( 'NONE', #163, #183, #134 ) ;
#185 = EDGE_CURVE ( 'NONE', #265, #151, #287, .T. ) ;
#186 = CARTESIAN_POINT ( 'NONE',  ( 0.000000000000000000, 0.000000000000000000, 7.199999999999984190 ) ) ;
#187 = APPROVAL_DATE_TIME ( #25, #8 ) ;
#188 = PLANE ( 'NONE',  #292 ) ;
#189 = PRODUCT_RELATED_PRODUCT_CATEGORY ( 'detail', '', ( #248 ) ) ;
#190 = ORIENTED_EDGE ( 'NONE', *, *, #223, .F. ) ;
#191 = COORDINATED_UNIVERSAL_TIME_OFFSET ( 1, 0, .AHEAD. ) ;
#192 = TOROIDAL_SURFACE ( 'NONE', #35, 6.450000000000000178, 0.2000000000000000111 ) ;
#193 = DIRECTION ( 'NONE',  ( 1.000000000000000000, 0.000000000000000000, 0.000000000000000000 ) ) ;
#194 = ORIENTED_EDGE ( 'NONE', *, *, #33, .F. ) ;
#195 = VERTEX_POINT ( 'NONE', #79 ) ;
#196 = CARTESIAN_POINT ( 'NONE',  ( -9.000000000000000000, 0.000000000000000000, 7.000000000000000000 ) ) ;
#197 = VERTEX_POINT ( 'NONE', #176 ) ;
#198 = DIRECTION ( 'NONE',  ( 0.000000000000000000, -1.000000000000000000, 0.000000000000000000 ) ) ;
#199 = EDGE_LOOP ( 'NONE', ( #288, #283 ) ) ;
#200 = ADVANCED_FACE ( 'NONE', ( #263 ), #64, .T. ) ;
#201 = CARTESIAN_POINT ( 'NONE',  ( 0.000000000000000000, 0.000000000000000000, 407.0000000000000000 ) ) ;
#202 = DIRECTION ( 'NONE',  ( 0.000000000000000000, 0.000000000000000000, 1.000000000000000000 ) ) ;
#203 = PRODUCT_DEFINITION_SHAPE ( 'NONE', 'NONE',  #101 ) ;
#204 = CIRCLE ( 'NONE', #208, 9.000000000000000000 ) ;
#205 = DIRECTION ( 'NONE',  ( -0.000000000000000000, -0.000000000000000000, -1.000000000000000000 ) ) ;
#206 = CYLINDRICAL_SURFACE ( 'NONE', #67, 9.000000000000000000 ) ;
#207 = CARTESIAN_POINT ( 'NONE',  ( 6.250000000000000000, 7.654042494670957606E-16, 407.0000000000000000 ) ) ;
#208 = AXIS2_PLACEMENT_3D ( 'NONE', #174, #105, #100 ) ;
#209 = CARTESIAN_POINT ( 'NONE',  ( 0.000000000000000000, 0.000000000000000000, 7.000000000000000000 ) ) ;
#210 = DIRECTION ( 'NONE',  ( -0.000000000000000000, -0.000000000000000000, -1.000000000000000000 ) ) ;
#211 = FACE_BOUND ( 'NONE', #278, .T. ) ;
#212 = DATE_TIME_ROLE ( 'creation_date' ) ;
#213 = DATE_AND_TIME ( #119, #224 ) ;
#214 = AXIS2_PLACEMENT_3D ( 'NONE', #218, #202, #246 ) ;
#215 = ADVANCED_BREP_SHAPE_REPRESENTATION ( '068c', ( #217, #256 ), #46 ) ;
#216 = ORIENTED_EDGE ( 'NONE', *, *, #167, .T. ) ;
#217 = MANIFOLD_SOLID_BREP ( 'Zaoblit1', #85 ) ;
#218 = CARTESIAN_POINT ( 'NONE',  ( 0.000000000000000000, 0.000000000000000000, 0.000000000000000000 ) ) ;
#219 = EDGE_CURVE ( 'NONE', #83, #151, #222, .T. ) ;
#220 = PLANE ( 'NONE',  #6 ) ;
#221 = DIRECTION ( 'NONE',  ( 0.000000000000000000, 0.000000000000000000, 1.000000000000000000 ) ) ;
#222 = CIRCLE ( 'NONE', #112, 9.000000000000000000 ) ;
#223 = EDGE_CURVE ( 'NONE', #286, #146, #170, .T. ) ;
#224 = LOCAL_TIME ( 11, 42, 17.00000000000000000, #191 ) ;
#225 = FACE_OUTER_BOUND ( 'NONE', #154, .T. ) ;
#226 = CARTESIAN_POINT ( 'NONE',  ( 9.000000000000000000, 1.102182119232617714E-15, 0.000000000000000000 ) ) ;
#227 = DIRECTION ( 'NONE',  ( -0.000000000000000000, -0.000000000000000000, -1.000000000000000000 ) ) ;
#228 = PERSON_AND_ORGANIZATION ( #118, #295 ) ;
#229 = AXIS2_PLACEMENT_3D ( 'NONE', #10, #84, #102 ) ;
#230 = ORIENTED_EDGE ( 'NONE', *, *, #75, .T. ) ;
#231 =( NAMED_UNIT ( * ) SI_UNIT ( $, .STERADIAN. ) SOLID_ANGLE_UNIT ( ) );
#232 = DIRECTION ( 'NONE',  ( 1.000000000000000000, 0.000000000000000000, 0.000000000000000000 ) ) ;
#233 = APPLICATION_PROTOCOL_DEFINITION ( 'international standard', 'config_control_design', 1994, #26 ) ;
#234 = PERSON_AND_ORGANIZATION ( #118, #295 ) ;
#235 =( NAMED_UNIT ( * ) PLANE_ANGLE_UNIT ( ) SI_UNIT ( $, .RADIAN. ) );
#236 = AXIS2_PLACEMENT_3D ( 'NONE', #289, #293, #57 ) ;
#237 = ADVANCED_FACE ( 'NONE', ( #104 ), #54, .T. ) ;
#238 = ORIENTED_EDGE ( 'NONE', *, *, #18, .T. ) ;
#239 = DIRECTION ( 'NONE',  ( 1.000000000000000000, 0.000000000000000000, 0.000000000000000000 ) ) ;
#240 = ORIENTED_EDGE ( 'NONE', *, *, #18, .F. ) ;
#241 = FACE_OUTER_BOUND ( 'NONE', #199, .T. ) ;
#242 = ADVANCED_FACE ( 'NONE', ( #180 ), #63, .T. ) ;
#243 = CC_DESIGN_APPROVAL ( #8, ( #101 ) ) ;
#244 = DIRECTION ( 'NONE',  ( 0.000000000000000000, 0.000000000000000000, 1.000000000000000000 ) ) ;
#245 = DIRECTION ( 'NONE',  ( -1.000000000000000000, 0.000000000000000000, 0.000000000000000000 ) ) ;
#246 = DIRECTION ( 'NONE',  ( 1.000000000000000000, 0.000000000000000000, 0.000000000000000000 ) ) ;
#247 = AXIS2_PLACEMENT_3D ( 'NONE', #155, #38, #32 ) ;
#248 = PRODUCT ( '068c', '068c', '', ( #258 ) ) ;
#249 = CIRCLE ( 'NONE', #274, 6.250000000000000000 ) ;
#250 = DIRECTION ( 'NONE',  ( 1.224646799147353207E-16, 1.000000000000000000, -0.000000000000000000 ) ) ;
#251 = EDGE_LOOP ( 'NONE', ( #290, #80, #133, #30 ) ) ;
#252 = COORDINATED_UNIVERSAL_TIME_OFFSET ( 1, 0, .AHEAD. ) ;
#253 = APPLICATION_CONTEXT ( 'configuration controlled 3d designs of mechanical parts and assemblies' ) ;
#254 = DIRECTION ( 'NONE',  ( -0.000000000000000000, -0.000000000000000000, -1.000000000000000000 ) ) ;
#255 = PERSON_AND_ORGANIZATION_ROLE ( 'design_owner' ) ;
#256 = AXIS2_PLACEMENT_3D ( 'NONE', #28, #141, #166 ) ;
#257 = CARTESIAN_POINT ( 'NONE',  ( 0.000000000000000000, 0.000000000000000000, 7.000000000000000000 ) ) ;
#258 = MECHANICAL_CONTEXT ( 'NONE', #253, 'mechanical' ) ;
#259 = COORDINATED_UNIVERSAL_TIME_OFFSET ( 1, 0, .AHEAD. ) ;
#260 = PERSON_AND_ORGANIZATION ( #118, #295 ) ;
#261 = CC_DESIGN_PERSON_AND_ORGANIZATION_ASSIGNMENT ( #172, #7, ( #1 ) ) ;
#262 = CIRCLE ( 'NONE', #132, 6.250000000000000000 ) ;
#263 = FACE_OUTER_BOUND ( 'NONE', #251, .T. ) ;
#264 = APPROVAL_ROLE ( '' ) ;
#265 = VERTEX_POINT ( 'NONE', #130 ) ;
#266 = CYLINDRICAL_SURFACE ( 'NONE', #236, 6.250000000000000000 ) ;
#267 = CARTESIAN_POINT ( 'NONE',  ( 0.000000000000000000, 0.000000000000000000, 7.000000000000000000 ) ) ;
#268 = CC_DESIGN_APPROVAL ( #306, ( #280 ) ) ;
#269 = DIRECTION ( 'NONE',  ( 1.000000000000000000, 0.000000000000000000, 0.000000000000000000 ) ) ;
#270 = CARTESIAN_POINT ( 'NONE',  ( 6.450000000000000178, 0.000000000000000000, 7.199999999999984190 ) ) ;
#271 = EDGE_CURVE ( 'NONE', #265, #197, #284, .T. ) ;
#272 = TOROIDAL_SURFACE ( 'NONE', #65, 6.450000000000000178, 0.2000000000000000111 ) ;
#273 = EDGE_CURVE ( 'NONE', #195, #58, #142, .T. ) ;
#274 = AXIS2_PLACEMENT_3D ( 'NONE', #303, #297, #232 ) ;
#275 = ORIENTED_EDGE ( 'NONE', *, *, #131, .T. ) ;
#276 = ORIENTED_EDGE ( 'NONE', *, *, #66, .F. ) ;
#277 = APPROVAL_ROLE ( '' ) ;
#278 = EDGE_LOOP ( 'NONE', ( #17, #175 ) ) ;
#279 = DIRECTION ( 'NONE',  ( 1.000000000000000000, 0.000000000000000000, 0.000000000000000000 ) ) ;
#280 = PRODUCT_DEFINITION_FORMATION_WITH_SPECIFIED_SOURCE ( 'LIBOVOLNÝ', '', #248, .NOT_KNOWN. ) ;
#281 = CARTESIAN_POINT ( 'NONE',  ( 9.000000000000000000, 1.102182119232617714E-15, 7.000000000000000000 ) ) ;
#282 = EDGE_CURVE ( 'NONE', #197, #83, #114, .T. ) ;
#283 = ORIENTED_EDGE ( 'NONE', *, *, #219, .F. ) ;
#284 = CIRCLE ( 'NONE', #157, 9.000000000000000000 ) ;
#285 = PERSON_AND_ORGANIZATION ( #118, #295 ) ;
#286 = VERTEX_POINT ( 'NONE', #97 ) ;
#287 = LINE ( 'NONE', #196, #53 ) ;
#288 = ORIENTED_EDGE ( 'NONE', *, *, #150, .F. ) ;
#289 = CARTESIAN_POINT ( 'NONE',  ( 0.000000000000000000, 0.000000000000000000, 407.0000000000000000 ) ) ;
#290 = ORIENTED_EDGE ( 'NONE', *, *, #173, .F. ) ;
#291 = DIRECTION ( 'NONE',  ( -0.000000000000000000, -0.000000000000000000, -1.000000000000000000 ) ) ;
#292 = AXIS2_PLACEMENT_3D ( 'NONE', #257, #50, #91 ) ;
#293 = DIRECTION ( 'NONE',  ( -0.000000000000000000, -0.000000000000000000, -1.000000000000000000 ) ) ;
#294 = CC_DESIGN_PERSON_AND_ORGANIZATION_ASSIGNMENT ( #305, #23, ( #280 ) ) ;
#295 = ORGANIZATION ( 'NEURÈENÝ', 'NEURÈENÝ', '' ) ;
#296 = APPROVAL ( #139, 'NEURÈENÝ' ) ;
#297 = DIRECTION ( 'NONE',  ( 0.000000000000000000, 0.000000000000000000, 1.000000000000000000 ) ) ;
#298 = DESIGN_CONTEXT ( 'detailed design', #26, 'design' ) ;
#299 = AXIS2_PLACEMENT_3D ( 'NONE', #267, #59, #153 ) ;
#300 = ORIENTED_EDGE ( 'NONE', *, *, #49, .T. ) ;
#301 = PERSON_AND_ORGANIZATION ( #118, #295 ) ;
#302 = CARTESIAN_POINT ( 'NONE',  ( -6.250000000000000000, 0.000000000000000000, 7.199999999999984190 ) ) ;
#303 = CARTESIAN_POINT ( 'NONE',  ( 0.000000000000000000, 0.000000000000000000, 7.199999999999984190 ) ) ;
#304 = APPROVAL_STATUS ( 'not_yet_approved' ) ;
#305 = PERSON_AND_ORGANIZATION ( #118, #295 ) ;
#306 = APPROVAL ( #304, 'NEURÈENÝ' ) ;
#307 = APPROVAL_PERSON_ORGANIZATION ( #228, #306, #95 ) ;
ENDSEC;
END-ISO-10303-21;
