ISO-10303-21;
HEADER;
FILE_DESCRIPTION (( 'STEP AP203' ),
    '1' );
FILE_NAME ('79d0.STEP',
    '2022-07-07T10:32:58',
    ( '' ),
    ( '' ),
    'SwSTEP 2.0',
    'SolidWorks 2019',
    '' );
FILE_SCHEMA (( 'CONFIG_CONTROL_DESIGN' ));
ENDSEC;

DATA;
#1 = VERTEX_POINT ( 'NONE', #255 ) ;
#2 = AXIS2_PLACEMENT_3D ( 'NONE', #194, #152, #269 ) ;
#3 = DIRECTION ( 'NONE',  ( 0.000000000000000000, 0.000000000000000000, 1.000000000000000000 ) ) ;
#4 = ADVANCED_FACE ( 'NONE', ( #104, #253 ), #289, .T. ) ;
#5 = CC_DESIGN_DATE_AND_TIME_ASSIGNMENT ( #248, #226, ( #181 ) ) ;
#6 = DIRECTION ( 'NONE',  ( 1.000000000000000000, 0.000000000000000000, 0.000000000000000000 ) ) ;
#7 = AXIS2_PLACEMENT_3D ( 'NONE', #114, #134, #19 ) ;
#8 = EDGE_LOOP ( 'NONE', ( #96, #207 ) ) ;
#9 = DIRECTION ( 'NONE',  ( -0.000000000000000000, -0.000000000000000000, -1.000000000000000000 ) ) ;
#10 = DIRECTION ( 'NONE',  ( 1.000000000000000000, 0.000000000000000000, -0.000000000000000000 ) ) ;
#11 = AXIS2_PLACEMENT_3D ( 'NONE', #132, #172, #17 ) ;
#12 = DIRECTION ( 'NONE',  ( 0.000000000000000000, 0.000000000000000000, 1.000000000000000000 ) ) ;
#13 = LINE ( 'NONE', #302, #35 ) ;
#14 = CC_DESIGN_PERSON_AND_ORGANIZATION_ASSIGNMENT ( #117, #68, ( #121 ) ) ;
#15 = DIRECTION ( 'NONE',  ( 1.000000000000000000, 0.000000000000000000, 0.000000000000000000 ) ) ;
#16 = APPROVAL_ROLE ( '' ) ;
#17 = DIRECTION ( 'NONE',  ( -1.000000000000000000, 0.000000000000000000, 0.000000000000000000 ) ) ;
#18 = APPROVAL_DATE_TIME ( #270, #297 ) ;
#19 = DIRECTION ( 'NONE',  ( 1.000000000000000000, 0.000000000000000000, 0.000000000000000000 ) ) ;
#20 = CIRCLE ( 'NONE', #263, 1.450000000000000178 ) ;
#21 = EDGE_LOOP ( 'NONE', ( #163, #187, #161, #228 ) ) ;
#22 = CALENDAR_DATE ( 2022, 7, 7 ) ;
#23 = CIRCLE ( 'NONE', #190, 2.500000000000000000 ) ;
#24 = EDGE_CURVE ( 'NONE', #1, #211, #236, .T. ) ;
#25 = AXIS2_PLACEMENT_3D ( 'NONE', #176, #292, #135 ) ;
#26 = EDGE_CURVE ( 'NONE', #168, #73, #95, .T. ) ;
#27 = ORIENTED_EDGE ( 'NONE', *, *, #24, .T. ) ;
#28 = AXIS2_PLACEMENT_3D ( 'NONE', #146, #29, #74 ) ;
#29 = DIRECTION ( 'NONE',  ( -0.000000000000000000, -0.000000000000000000, -1.000000000000000000 ) ) ;
#30 = DIRECTION ( 'NONE',  ( -0.000000000000000000, -0.000000000000000000, -1.000000000000000000 ) ) ;
#31 = CC_DESIGN_APPROVAL ( #297, ( #249 ) ) ;
#32 = DIRECTION ( 'NONE',  ( -1.000000000000000000, 0.000000000000000000, 0.000000000000000000 ) ) ;
#33 = CYLINDRICAL_SURFACE ( 'NONE', #144, 2.500000000000000000 ) ;
#34 = DIRECTION ( 'NONE',  ( 0.000000000000000000, 0.000000000000000000, 1.000000000000000000 ) ) ;
#35 = VECTOR ( 'NONE', #237, 1000.000000000000000 ) ;
#36 = LOCAL_TIME ( 12, 32, 58.00000000000000000, #296 ) ;
#37 = APPROVAL ( #43, 'NEURÈENÝ' ) ;
#38 = DIRECTION ( 'NONE',  ( 0.000000000000000000, 0.000000000000000000, 1.000000000000000000 ) ) ;
#39 = APPROVAL_ROLE ( '' ) ;
#40 = CARTESIAN_POINT ( 'NONE',  ( 0.000000000000000000, 0.000000000000000000, 0.000000000000000000 ) ) ;
#41 = APPROVAL_ROLE ( '' ) ;
#42 = CARTESIAN_POINT ( 'NONE',  ( -2.500000000000000000, 0.000000000000000000, 0.000000000000000000 ) ) ;
#43 = APPROVAL_STATUS ( 'not_yet_approved' ) ;
#44 = CALENDAR_DATE ( 2022, 7, 7 ) ;
#45 = VECTOR ( 'NONE', #60, 1000.000000000000000 ) ;
#46 = ORIENTED_EDGE ( 'NONE', *, *, #151, .T. ) ;
#47 = EDGE_CURVE ( 'NONE', #288, #51, #20, .T. ) ;
#48 = ORIENTED_EDGE ( 'NONE', *, *, #118, .T. ) ;
#49 = EDGE_CURVE ( 'NONE', #139, #211, #293, .T. ) ;
#50 = TOROIDAL_SURFACE ( 'NONE', #7, 1.450000000000000178, 0.2000000000000000111 ) ;
#51 = VERTEX_POINT ( 'NONE', #169 ) ;
#52 = APPROVAL_PERSON_ORGANIZATION ( #240, #297, #39 ) ;
#53 = FACE_OUTER_BOUND ( 'NONE', #94, .T. ) ;
#54 = CARTESIAN_POINT ( 'NONE',  ( 2.500000000000000000, 3.061616997868383141E-16, 2.000000000000000000 ) ) ;
#55 = ORIENTED_EDGE ( 'NONE', *, *, #118, .F. ) ;
#56 = ORIENTED_EDGE ( 'NONE', *, *, #142, .F. ) ;
#57 = CARTESIAN_POINT ( 'NONE',  ( -2.500000000000000000, 0.000000000000000000, 2.000000000000000000 ) ) ;
#58 = ADVANCED_FACE ( 'NONE', ( #53 ), #259, .T. ) ;
#59 = ADVANCED_FACE ( 'NONE', ( #101 ), #33, .T. ) ;
#60 = DIRECTION ( 'NONE',  ( -0.000000000000000000, -0.000000000000000000, -1.000000000000000000 ) ) ;
#61 = APPLICATION_PROTOCOL_DEFINITION ( 'international standard', 'config_control_design', 1994, #280 ) ;
#62 = FACE_OUTER_BOUND ( 'NONE', #21, .T. ) ;
#63 = DIRECTION ( 'NONE',  ( 1.000000000000000000, 0.000000000000000000, 0.000000000000000000 ) ) ;
#64 = PERSON_AND_ORGANIZATION_ROLE ( 'design_owner' ) ;
#65 = CARTESIAN_POINT ( 'NONE',  ( -1.250000000000000000, 0.000000000000000000, 202.0000000000000000 ) ) ;
#66 = DATE_AND_TIME ( #44, #298 ) ;
#67 = CIRCLE ( 'NONE', #275, 2.500000000000000000 ) ;
#68 = PERSON_AND_ORGANIZATION_ROLE ( 'design_supplier' ) ;
#69 = ADVANCED_FACE ( 'NONE', ( #127 ), #256, .T. ) ;
#70 = ORIENTED_EDGE ( 'NONE', *, *, #47, .F. ) ;
#71 = LOCAL_TIME ( 12, 32, 58.00000000000000000, #88 ) ;
#72 = ORIENTED_EDGE ( 'NONE', *, *, #49, .T. ) ;
#73 = VERTEX_POINT ( 'NONE', #54 ) ;
#74 = DIRECTION ( 'NONE',  ( -1.000000000000000000, 0.000000000000000000, 0.000000000000000000 ) ) ;
#75 = DIRECTION ( 'NONE',  ( 0.000000000000000000, 0.000000000000000000, 1.000000000000000000 ) ) ;
#76 = APPLICATION_CONTEXT ( 'configuration controlled 3d designs of mechanical parts and assemblies' ) ;
#77 = DIRECTION ( 'NONE',  ( 1.000000000000000000, 0.000000000000000000, 0.000000000000000000 ) ) ;
#78 = ADVANCED_FACE ( 'NONE', ( #126 ), #201, .F. ) ;
#79 = CARTESIAN_POINT ( 'NONE',  ( 0.000000000000000000, 0.000000000000000000, 2.000000000000000000 ) ) ;
#80 = ORIENTED_EDGE ( 'NONE', *, *, #278, .T. ) ;
#81 = ORGANIZATION ( 'NEURÈENÝ', 'NEURÈENÝ', '' ) ;
#82 = PLANE ( 'NONE',  #306 ) ;
#83 = DIRECTION ( 'NONE',  ( 0.000000000000000000, 0.000000000000000000, 1.000000000000000000 ) ) ;
#84 = SHAPE_DEFINITION_REPRESENTATION ( #108, #162 ) ;
#85 = VECTOR ( 'NONE', #243, 1000.000000000000000 ) ;
#86 = DIRECTION ( 'NONE',  ( 1.000000000000000000, 0.000000000000000000, 0.000000000000000000 ) ) ;
#87 = DIRECTION ( 'NONE',  ( -0.000000000000000000, -0.000000000000000000, -1.000000000000000000 ) ) ;
#88 = COORDINATED_UNIVERSAL_TIME_OFFSET ( 1, 0, .AHEAD. ) ;
#89 = CARTESIAN_POINT ( 'NONE',  ( -1.250000000000000000, 0.000000000000000000, 202.0000000000000000 ) ) ;
#90 = PERSON_AND_ORGANIZATION ( #98, #81 ) ;
#91 = APPROVAL_DATE_TIME ( #66, #213 ) ;
#92 = CC_DESIGN_PERSON_AND_ORGANIZATION_ASSIGNMENT ( #265, #112, ( #181 ) ) ;
#93 = EDGE_CURVE ( 'NONE', #140, #1, #258, .T. ) ;
#94 = EDGE_LOOP ( 'NONE', ( #143, #251, #124, #72 ) ) ;
#95 = CIRCLE ( 'NONE', #283, 2.500000000000000000 ) ;
#96 = ORIENTED_EDGE ( 'NONE', *, *, #103, .T. ) ;
#97 = EDGE_LOOP ( 'NONE', ( #229, #27, #284, #186 ) ) ;
#98 = PERSON ( 'NEURÈENÝ', 'NEURÈENÝ', 'NEURÈENÝ', ('NEURÈENÝ'), ('NEURÈENÝ'), ('NEURÈENÝ') ) ;
#99 = EDGE_LOOP ( 'NONE', ( #55, #159, #100, #70 ) ) ;
#100 = ORIENTED_EDGE ( 'NONE', *, *, #234, .T. ) ;
#101 = FACE_OUTER_BOUND ( 'NONE', #138, .T. ) ;
#102 = EDGE_CURVE ( 'NONE', #140, #139, #155, .T. ) ;
#103 = EDGE_CURVE ( 'NONE', #51, #288, #250, .T. ) ;
#104 = FACE_BOUND ( 'NONE', #8, .T. ) ;
#105 = CLOSED_SHELL ( 'NONE', ( #184, #268, #59, #164, #4, #227, #58, #69, #78 ) ) ;
#106 = CARTESIAN_POINT ( 'NONE',  ( 0.000000000000000000, 0.000000000000000000, 2.200000000000007283 ) ) ;
#107 = CYLINDRICAL_SURFACE ( 'NONE', #11, 2.500000000000000000 ) ;
#108 = PRODUCT_DEFINITION_SHAPE ( 'NONE', 'NONE',  #249 ) ;
#109 = DIRECTION ( 'NONE',  ( 0.000000000000000000, 0.000000000000000000, -1.000000000000000000 ) ) ;
#110 = PERSON_AND_ORGANIZATION ( #98, #81 ) ;
#111 = CARTESIAN_POINT ( 'NONE',  ( 1.450000000000000178, 0.000000000000000000, 2.200000000000007283 ) ) ;
#112 = PERSON_AND_ORGANIZATION_ROLE ( 'classification_officer' ) ;
#113 = CC_DESIGN_DATE_AND_TIME_ASSIGNMENT ( #225, #156, ( #249 ) ) ;
#114 = CARTESIAN_POINT ( 'NONE',  ( 0.000000000000000000, 0.000000000000000000, 2.200000000000007283 ) ) ;
#115 = PERSON_AND_ORGANIZATION_ROLE ( 'creator' ) ;
#116 = CARTESIAN_POINT ( 'NONE',  ( 2.500000000000000000, 3.061616997868383141E-16, 0.000000000000000000 ) ) ;
#117 = PERSON_AND_ORGANIZATION ( #98, #81 ) ;
#118 = EDGE_CURVE ( 'NONE', #139, #288, #170, .T. ) ;
#119 = EDGE_LOOP ( 'NONE', ( #261, #46 ) ) ;
#120 = CIRCLE ( 'NONE', #150, 1.250000000000000000 ) ;
#121 = PRODUCT_DEFINITION_FORMATION_WITH_SPECIFIED_SOURCE ( 'LIBOVOLNÝ', '', #303, .NOT_KNOWN. ) ;
#122 = ORIENTED_EDGE ( 'NONE', *, *, #93, .T. ) ;
#123 = DIRECTION ( 'NONE',  ( 1.000000000000000000, 0.000000000000000000, 0.000000000000000000 ) ) ;
#124 = ORIENTED_EDGE ( 'NONE', *, *, #102, .T. ) ;
#125 = ORIENTED_EDGE ( 'NONE', *, *, #103, .F. ) ;
#126 = FACE_OUTER_BOUND ( 'NONE', #99, .T. ) ;
#127 = FACE_OUTER_BOUND ( 'NONE', #189, .T. ) ;
#128 = CARTESIAN_POINT ( 'NONE',  ( 0.000000000000000000, 0.000000000000000000, 2.200000000000007283 ) ) ;
#129 = CYLINDRICAL_SURFACE ( 'NONE', #238, 1.250000000000000000 ) ;
#130 = APPROVAL_STATUS ( 'not_yet_approved' ) ;
#131 = AXIS2_PLACEMENT_3D ( 'NONE', #191, #215, #10 ) ;
#132 = CARTESIAN_POINT ( 'NONE',  ( 0.000000000000000000, 0.000000000000000000, 2.000000000000000000 ) ) ;
#133 = CC_DESIGN_PERSON_AND_ORGANIZATION_ASSIGNMENT ( #305, #115, ( #249 ) ) ;
#134 = DIRECTION ( 'NONE',  ( 0.000000000000000000, 0.000000000000000000, 1.000000000000000000 ) ) ;
#135 = DIRECTION ( 'NONE',  ( 1.000000000000000000, 0.000000000000000000, 0.000000000000000000 ) ) ;
#136 = DATE_AND_TIME ( #22, #36 ) ;
#137 =( NAMED_UNIT ( * ) SI_UNIT ( $, .STERADIAN. ) SOLID_ANGLE_UNIT ( ) );
#138 = EDGE_LOOP ( 'NONE', ( #171, #80, #279, #233 ) ) ;
#139 = VERTEX_POINT ( 'NONE', #205 ) ;
#140 = VERTEX_POINT ( 'NONE', #89 ) ;
#141 = CARTESIAN_POINT ( 'NONE',  ( 0.000000000000000000, 0.000000000000000000, 2.000000000000000000 ) ) ;
#142 = EDGE_CURVE ( 'NONE', #193, #188, #286, .T. ) ;
#143 = ORIENTED_EDGE ( 'NONE', *, *, #24, .F. ) ;
#144 = AXIS2_PLACEMENT_3D ( 'NONE', #235, #9, #32 ) ;
#145 = ORIENTED_EDGE ( 'NONE', *, *, #49, .F. ) ;
#146 = CARTESIAN_POINT ( 'NONE',  ( 0.000000000000000000, 0.000000000000000000, 202.0000000000000000 ) ) ;
#147 = DIRECTION ( 'NONE',  ( -0.000000000000000000, -0.000000000000000000, -1.000000000000000000 ) ) ;
#148 = DIRECTION ( 'NONE',  ( -1.000000000000000000, 0.000000000000000000, 0.000000000000000000 ) ) ;
#149 = CARTESIAN_POINT ( 'NONE',  ( 0.000000000000000000, 0.000000000000000000, 2.000000000000000000 ) ) ;
#150 = AXIS2_PLACEMENT_3D ( 'NONE', #128, #295, #86 ) ;
#151 = EDGE_CURVE ( 'NONE', #73, #168, #67, .T. ) ;
#152 = DIRECTION ( 'NONE',  ( 0.000000000000000000, 0.000000000000000000, 1.000000000000000000 ) ) ;
#153 = CALENDAR_DATE ( 2022, 7, 7 ) ;
#154 = DIRECTION ( 'NONE',  ( 1.000000000000000000, 0.000000000000000000, 0.000000000000000000 ) ) ;
#155 = LINE ( 'NONE', #65, #85 ) ;
#156 = DATE_TIME_ROLE ( 'creation_date' ) ;
#157 = COORDINATED_UNIVERSAL_TIME_OFFSET ( 1, 0, .AHEAD. ) ;
#158 = AXIS2_PLACEMENT_3D ( 'NONE', #167, #75, #6 ) ;
#159 = ORIENTED_EDGE ( 'NONE', *, *, #287, .F. ) ;
#160 = EDGE_LOOP ( 'NONE', ( #145, #48, #125, #282 ) ) ;
#161 = ORIENTED_EDGE ( 'NONE', *, *, #257, .T. ) ;
#162 = ADVANCED_BREP_SHAPE_REPRESENTATION ( '79d0', ( #274, #196 ), #230 ) ;
#163 = ORIENTED_EDGE ( 'NONE', *, *, #278, .F. ) ;
#164 = ADVANCED_FACE ( 'NONE', ( #62 ), #107, .T. ) ;
#165 = AXIS2_PLACEMENT_3D ( 'NONE', #111, #264, #109 ) ;
#166 = LOCAL_TIME ( 12, 32, 58.00000000000000000, #301 ) ;
#167 = CARTESIAN_POINT ( 'NONE',  ( 0.000000000000000000, 0.000000000000000000, 2.200000000000007283 ) ) ;
#168 = VERTEX_POINT ( 'NONE', #202 ) ;
#169 = CARTESIAN_POINT ( 'NONE',  ( 1.450000000000000178, 0.000000000000000000, 2.000000000000003553 ) ) ;
#170 = CIRCLE ( 'NONE', #195, 0.2000000000000000944 ) ;
#171 = ORIENTED_EDGE ( 'NONE', *, *, #151, .F. ) ;
#172 = DIRECTION ( 'NONE',  ( -0.000000000000000000, -0.000000000000000000, -1.000000000000000000 ) ) ;
#173 = DIRECTION ( 'NONE',  ( 1.000000000000000000, 0.000000000000000000, 0.000000000000000000 ) ) ;
#174 = PRODUCT_RELATED_PRODUCT_CATEGORY ( 'detail', '', ( #303 ) ) ;
#175 = CIRCLE ( 'NONE', #165, 0.2000000000000000944 ) ;
#176 = CARTESIAN_POINT ( 'NONE',  ( 0.000000000000000000, 0.000000000000000000, 2.000000000000000000 ) ) ;
#177 = APPLICATION_PROTOCOL_DEFINITION ( 'international standard', 'config_control_design', 1994, #76 ) ;
#178 = VECTOR ( 'NONE', #30, 1000.000000000000000 ) ;
#179 = CARTESIAN_POINT ( 'NONE',  ( 0.000000000000000000, 0.000000000000000000, 0.000000000000000000 ) ) ;
#180 = CARTESIAN_POINT ( 'NONE',  ( 0.000000000000000000, 0.000000000000000000, 0.000000000000000000 ) ) ;
#181 = SECURITY_CLASSIFICATION ( '', '', #182 ) ;
#182 = SECURITY_CLASSIFICATION_LEVEL ( 'unclassified' ) ;
#183 = EDGE_LOOP ( 'NONE', ( #209, #56 ) ) ;
#184 = ADVANCED_FACE ( 'NONE', ( #203 ), #50, .F. ) ;
#185 = CC_DESIGN_PERSON_AND_ORGANIZATION_ASSIGNMENT ( #267, #247, ( #121 ) ) ;
#186 = ORIENTED_EDGE ( 'NONE', *, *, #102, .F. ) ;
#187 = ORIENTED_EDGE ( 'NONE', *, *, #26, .F. ) ;
#188 = VERTEX_POINT ( 'NONE', #42 ) ;
#189 = EDGE_LOOP ( 'NONE', ( #122, #210 ) ) ;
#190 = AXIS2_PLACEMENT_3D ( 'NONE', #40, #221, #15 ) ;
#191 = CARTESIAN_POINT ( 'NONE',  ( 0.000000000000000000, 0.000000000000000000, 202.0000000000000000 ) ) ;
#192 = UNCERTAINTY_MEASURE_WITH_UNIT (LENGTH_MEASURE( 1.000000000000000082E-05 ), #206, 'distance_accuracy_value', 'NONE');
#193 = VERTEX_POINT ( 'NONE', #116 ) ;
#194 = CARTESIAN_POINT ( 'NONE',  ( 0.000000000000000000, 0.000000000000000000, 202.0000000000000000 ) ) ;
#195 = AXIS2_PLACEMENT_3D ( 'NONE', #300, #246, #224 ) ;
#196 = AXIS2_PLACEMENT_3D ( 'NONE', #180, #273, #154 ) ;
#197 = DIRECTION ( 'NONE',  ( 0.000000000000000000, 0.000000000000000000, 1.000000000000000000 ) ) ;
#198 = FACE_OUTER_BOUND ( 'NONE', #97, .T. ) ;
#199 = EDGE_CURVE ( 'NONE', #1, #140, #216, .T. ) ;
#200 = PERSON_AND_ORGANIZATION ( #98, #81 ) ;
#201 = TOROIDAL_SURFACE ( 'NONE', #220, 1.450000000000000178, 0.2000000000000000111 ) ;
#202 = CARTESIAN_POINT ( 'NONE',  ( -2.500000000000000000, 0.000000000000000000, 2.000000000000000000 ) ) ;
#203 = FACE_OUTER_BOUND ( 'NONE', #160, .T. ) ;
#204 = COORDINATED_UNIVERSAL_TIME_OFFSET ( 1, 0, .AHEAD. ) ;
#205 = CARTESIAN_POINT ( 'NONE',  ( -1.250000000000000000, 0.000000000000000000, 2.200000000000007283 ) ) ;
#206 =( LENGTH_UNIT ( ) NAMED_UNIT ( * ) SI_UNIT ( .MILLI., .METRE. ) );
#207 = ORIENTED_EDGE ( 'NONE', *, *, #47, .T. ) ;
#208 = APPROVAL_PERSON_ORGANIZATION ( #90, #213, #16 ) ;
#209 = ORIENTED_EDGE ( 'NONE', *, *, #299, .F. ) ;
#210 = ORIENTED_EDGE ( 'NONE', *, *, #199, .T. ) ;
#211 = VERTEX_POINT ( 'NONE', #291 ) ;
#212 = DESIGN_CONTEXT ( 'detailed design', #76, 'design' ) ;
#213 = APPROVAL ( #242, 'NEURÈENÝ' ) ;
#214 = DIRECTION ( 'NONE',  ( 1.000000000000000000, 0.000000000000000000, -0.000000000000000000 ) ) ;
#215 = DIRECTION ( 'NONE',  ( 0.000000000000000000, 0.000000000000000000, 1.000000000000000000 ) ) ;
#216 = CIRCLE ( 'NONE', #254, 1.250000000000000000 ) ;
#217 = CARTESIAN_POINT ( 'NONE',  ( 0.000000000000000000, 0.000000000000000000, 0.000000000000000000 ) ) ;
#218 = CARTESIAN_POINT ( 'NONE',  ( 0.000000000000000000, 0.000000000000000000, 202.0000000000000000 ) ) ;
#219 = CALENDAR_DATE ( 2022, 7, 7 ) ;
#220 = AXIS2_PLACEMENT_3D ( 'NONE', #106, #197, #231 ) ;
#221 = DIRECTION ( 'NONE',  ( 0.000000000000000000, 0.000000000000000000, 1.000000000000000000 ) ) ;
#222 = DIRECTION ( 'NONE',  ( 1.000000000000000000, 0.000000000000000000, -0.000000000000000000 ) ) ;
#223 = CALENDAR_DATE ( 2022, 7, 7 ) ;
#224 = DIRECTION ( 'NONE',  ( -1.000000000000000000, 1.224646799147353207E-16, 0.000000000000000000 ) ) ;
#225 = DATE_AND_TIME ( #153, #166 ) ;
#226 = DATE_TIME_ROLE ( 'classification_date' ) ;
#227 = ADVANCED_FACE ( 'NONE', ( #239 ), #82, .F. ) ;
#228 = ORIENTED_EDGE ( 'NONE', *, *, #299, .T. ) ;
#229 = ORIENTED_EDGE ( 'NONE', *, *, #199, .F. ) ;
#230 =( GEOMETRIC_REPRESENTATION_CONTEXT ( 3 ) GLOBAL_UNCERTAINTY_ASSIGNED_CONTEXT ( ( #192 ) ) GLOBAL_UNIT_ASSIGNED_CONTEXT ( ( #206, #276, #137 ) ) REPRESENTATION_CONTEXT ( 'NONE', 'WORKASPACE' ) );
#231 = DIRECTION ( 'NONE',  ( 1.000000000000000000, 0.000000000000000000, 0.000000000000000000 ) ) ;
#232 = CARTESIAN_POINT ( 'NONE',  ( 1.250000000000000000, 1.530808498934191571E-16, 202.0000000000000000 ) ) ;
#233 = ORIENTED_EDGE ( 'NONE', *, *, #257, .F. ) ;
#234 = EDGE_CURVE ( 'NONE', #211, #51, #175, .T. ) ;
#235 = CARTESIAN_POINT ( 'NONE',  ( 0.000000000000000000, 0.000000000000000000, 2.000000000000000000 ) ) ;
#236 = LINE ( 'NONE', #232, #178 ) ;
#237 = DIRECTION ( 'NONE',  ( -0.000000000000000000, -0.000000000000000000, -1.000000000000000000 ) ) ;
#238 = AXIS2_PLACEMENT_3D ( 'NONE', #218, #87, #148 ) ;
#239 = FACE_OUTER_BOUND ( 'NONE', #183, .T. ) ;
#240 = PERSON_AND_ORGANIZATION ( #98, #81 ) ;
#241 = CARTESIAN_POINT ( 'NONE',  ( -1.450000000000000178, 1.775737858763662409E-16, 2.000000000000003553 ) ) ;
#242 = APPROVAL_STATUS ( 'not_yet_approved' ) ;
#243 = DIRECTION ( 'NONE',  ( -0.000000000000000000, -0.000000000000000000, -1.000000000000000000 ) ) ;
#244 = MECHANICAL_CONTEXT ( 'NONE', #280, 'mechanical' ) ;
#245 = AXIS2_PLACEMENT_3D ( 'NONE', #179, #38, #63 ) ;
#246 = DIRECTION ( 'NONE',  ( 1.224646799147353207E-16, 1.000000000000000000, -0.000000000000000000 ) ) ;
#247 = PERSON_AND_ORGANIZATION_ROLE ( 'creator' ) ;
#248 = DATE_AND_TIME ( #219, #307 ) ;
#249 = PRODUCT_DEFINITION ( 'NEZNÁMÝ', '', #121, #212 ) ;
#250 = CIRCLE ( 'NONE', #25, 1.450000000000000178 ) ;
#251 = ORIENTED_EDGE ( 'NONE', *, *, #93, .F. ) ;
#252 = CC_DESIGN_SECURITY_CLASSIFICATION ( #181, ( #121 ) ) ;
#253 = FACE_OUTER_BOUND ( 'NONE', #119, .T. ) ;
#254 = AXIS2_PLACEMENT_3D ( 'NONE', #272, #34, #266 ) ;
#255 = CARTESIAN_POINT ( 'NONE',  ( 1.250000000000000000, 1.530808498934191571E-16, 202.0000000000000000 ) ) ;
#256 = PLANE ( 'NONE',  #131 ) ;
#257 = EDGE_CURVE ( 'NONE', #168, #188, #262, .T. ) ;
#258 = CIRCLE ( 'NONE', #2, 1.250000000000000000 ) ;
#259 = CYLINDRICAL_SURFACE ( 'NONE', #28, 1.250000000000000000 ) ;
#260 = CC_DESIGN_APPROVAL ( #37, ( #181 ) ) ;
#261 = ORIENTED_EDGE ( 'NONE', *, *, #26, .T. ) ;
#262 = LINE ( 'NONE', #57, #45 ) ;
#263 = AXIS2_PLACEMENT_3D ( 'NONE', #141, #147, #77 ) ;
#264 = DIRECTION ( 'NONE',  ( 0.000000000000000000, -1.000000000000000000, 0.000000000000000000 ) ) ;
#265 = PERSON_AND_ORGANIZATION ( #98, #81 ) ;
#266 = DIRECTION ( 'NONE',  ( 1.000000000000000000, 0.000000000000000000, 0.000000000000000000 ) ) ;
#267 = PERSON_AND_ORGANIZATION ( #98, #81 ) ;
#268 = ADVANCED_FACE ( 'NONE', ( #198 ), #129, .T. ) ;
#269 = DIRECTION ( 'NONE',  ( 1.000000000000000000, 0.000000000000000000, 0.000000000000000000 ) ) ;
#270 = DATE_AND_TIME ( #223, #71 ) ;
#271 = AXIS2_PLACEMENT_3D ( 'NONE', #79, #290, #214 ) ;
#272 = CARTESIAN_POINT ( 'NONE',  ( 0.000000000000000000, 0.000000000000000000, 202.0000000000000000 ) ) ;
#273 = DIRECTION ( 'NONE',  ( 0.000000000000000000, 0.000000000000000000, 1.000000000000000000 ) ) ;
#274 = MANIFOLD_SOLID_BREP ( 'Zaoblit1', #105 ) ;
#275 = AXIS2_PLACEMENT_3D ( 'NONE', #149, #12, #173 ) ;
#276 =( NAMED_UNIT ( * ) PLANE_ANGLE_UNIT ( ) SI_UNIT ( $, .RADIAN. ) );
#277 = APPROVAL_PERSON_ORGANIZATION ( #110, #37, #41 ) ;
#278 = EDGE_CURVE ( 'NONE', #73, #193, #13, .T. ) ;
#279 = ORIENTED_EDGE ( 'NONE', *, *, #142, .T. ) ;
#280 = APPLICATION_CONTEXT ( 'configuration controlled 3d designs of mechanical parts and assemblies' ) ;
#281 = CC_DESIGN_APPROVAL ( #213, ( #121 ) ) ;
#282 = ORIENTED_EDGE ( 'NONE', *, *, #234, .F. ) ;
#283 = AXIS2_PLACEMENT_3D ( 'NONE', #285, #3, #123 ) ;
#284 = ORIENTED_EDGE ( 'NONE', *, *, #287, .T. ) ;
#285 = CARTESIAN_POINT ( 'NONE',  ( 0.000000000000000000, 0.000000000000000000, 2.000000000000000000 ) ) ;
#286 = CIRCLE ( 'NONE', #245, 2.500000000000000000 ) ;
#287 = EDGE_CURVE ( 'NONE', #211, #139, #120, .T. ) ;
#288 = VERTEX_POINT ( 'NONE', #241 ) ;
#289 = PLANE ( 'NONE',  #271 ) ;
#290 = DIRECTION ( 'NONE',  ( 0.000000000000000000, 0.000000000000000000, 1.000000000000000000 ) ) ;
#291 = CARTESIAN_POINT ( 'NONE',  ( 1.250000000000000000, 1.530808498934191571E-16, 2.200000000000007283 ) ) ;
#292 = DIRECTION ( 'NONE',  ( -0.000000000000000000, -0.000000000000000000, -1.000000000000000000 ) ) ;
#293 = CIRCLE ( 'NONE', #158, 1.250000000000000000 ) ;
#294 = APPROVAL_DATE_TIME ( #136, #37 ) ;
#295 = DIRECTION ( 'NONE',  ( 0.000000000000000000, 0.000000000000000000, 1.000000000000000000 ) ) ;
#296 = COORDINATED_UNIVERSAL_TIME_OFFSET ( 1, 0, .AHEAD. ) ;
#297 = APPROVAL ( #130, 'NEURÈENÝ' ) ;
#298 = LOCAL_TIME ( 12, 32, 58.00000000000000000, #204 ) ;
#299 = EDGE_CURVE ( 'NONE', #188, #193, #23, .T. ) ;
#300 = CARTESIAN_POINT ( 'NONE',  ( -1.450000000000000178, 1.775737858763662163E-16, 2.200000000000007283 ) ) ;
#301 = COORDINATED_UNIVERSAL_TIME_OFFSET ( 1, 0, .AHEAD. ) ;
#302 = CARTESIAN_POINT ( 'NONE',  ( 2.500000000000000000, 3.061616997868383141E-16, 2.000000000000000000 ) ) ;
#303 = PRODUCT ( '79d0', '79d0', '', ( #244 ) ) ;
#304 = CC_DESIGN_PERSON_AND_ORGANIZATION_ASSIGNMENT ( #200, #64, ( #303 ) ) ;
#305 = PERSON_AND_ORGANIZATION ( #98, #81 ) ;
#306 = AXIS2_PLACEMENT_3D ( 'NONE', #217, #83, #222 ) ;
#307 = LOCAL_TIME ( 12, 32, 58.00000000000000000, #157 ) ;
ENDSEC;
END-ISO-10303-21;
