ISO-10303-21;
HEADER;
FILE_DESCRIPTION (( 'STEP AP203' ),
    '1' );
FILE_NAME ('79f6.STEP',
    '2022-07-07T09:48:26',
    ( '' ),
    ( '' ),
    'SwSTEP 2.0',
    'SolidWorks 2019',
    '' );
FILE_SCHEMA (( 'CONFIG_CONTROL_DESIGN' ));
ENDSEC;

DATA;
#1 = DIRECTION ( 'NONE',  ( 0.000000000000000000, 0.000000000000000000, 1.000000000000000000 ) ) ;
#2 = ORIENTED_EDGE ( 'NONE', *, *, #6, .F. ) ;
#3 = CARTESIAN_POINT ( 'NONE',  ( 0.000000000000000000, 0.000000000000000000, 5.000000000000000000 ) ) ;
#4 = ADVANCED_FACE ( 'NONE', ( #158 ), #90, .T. ) ;
#5 = FACE_OUTER_BOUND ( 'NONE', #284, .T. ) ;
#6 = EDGE_CURVE ( 'NONE', #185, #42, #252, .T. ) ;
#7 = AXIS2_PLACEMENT_3D ( 'NONE', #48, #157, #140 ) ;
#8 = EDGE_CURVE ( 'NONE', #41, #73, #54, .T. ) ;
#9 = CARTESIAN_POINT ( 'NONE',  ( 5.500000000000000000, 6.735557395310442023E-16, 505.0000000000000000 ) ) ;
#10 = CARTESIAN_POINT ( 'NONE',  ( 8.000000000000000000, 9.797174393178825657E-16, 0.000000000000000000 ) ) ;
#11 = COORDINATED_UNIVERSAL_TIME_OFFSET ( 1, 0, .AHEAD. ) ;
#12 = ORIENTED_EDGE ( 'NONE', *, *, #8, .T. ) ;
#13 = PERSON_AND_ORGANIZATION_ROLE ( 'creator' ) ;
#14 = EDGE_LOOP ( 'NONE', ( #70, #112, #22, #225 ) ) ;
#15 = COORDINATED_UNIVERSAL_TIME_OFFSET ( 1, 0, .AHEAD. ) ;
#16 = VERTEX_POINT ( 'NONE', #209 ) ;
#17 = APPROVAL_ROLE ( '' ) ;
#18 = SECURITY_CLASSIFICATION ( '', '', #151 ) ;
#19 = CARTESIAN_POINT ( 'NONE',  ( 0.000000000000000000, 0.000000000000000000, 5.000000000000000000 ) ) ;
#20 = ADVANCED_FACE ( 'NONE', ( #212, #49 ), #278, .T. ) ;
#21 = CYLINDRICAL_SURFACE ( 'NONE', #288, 5.500000000000000000 ) ;
#22 = ORIENTED_EDGE ( 'NONE', *, *, #150, .T. ) ;
#23 = EDGE_CURVE ( 'NONE', #135, #275, #34, .T. ) ;
#24 = EDGE_LOOP ( 'NONE', ( #297, #174, #64, #235 ) ) ;
#25 = CIRCLE ( 'NONE', #188, 5.500000000000000000 ) ;
#26 = ORIENTED_EDGE ( 'NONE', *, *, #99, .T. ) ;
#27 = DIRECTION ( 'NONE',  ( 0.000000000000000000, 0.000000000000000000, 1.000000000000000000 ) ) ;
#28 = FACE_OUTER_BOUND ( 'NONE', #24, .T. ) ;
#29 = CC_DESIGN_DATE_AND_TIME_ASSIGNMENT ( #222, #201, ( #18 ) ) ;
#30 = DIRECTION ( 'NONE',  ( 1.000000000000000000, 0.000000000000000000, 0.000000000000000000 ) ) ;
#31 = AXIS2_PLACEMENT_3D ( 'NONE', #253, #88, #256 ) ;
#32 = AXIS2_PLACEMENT_3D ( 'NONE', #186, #285, #74 ) ;
#33 = APPLICATION_CONTEXT ( 'configuration controlled 3d designs of mechanical parts and assemblies' ) ;
#34 = CIRCLE ( 'NONE', #286, 5.500000000000000000 ) ;
#35 = LOCAL_TIME ( 11, 48, 26.00000000000000000, #15 ) ;
#36 = CARTESIAN_POINT ( 'NONE',  ( 0.000000000000000000, 0.000000000000000000, 505.0000000000000000 ) ) ;
#37 = CARTESIAN_POINT ( 'NONE',  ( -8.000000000000000000, 0.000000000000000000, 0.000000000000000000 ) ) ;
#38 = CALENDAR_DATE ( 2022, 7, 7 ) ;
#39 = APPLICATION_CONTEXT ( 'configuration controlled 3d designs of mechanical parts and assemblies' ) ;
#40 = COORDINATED_UNIVERSAL_TIME_OFFSET ( 1, 0, .AHEAD. ) ;
#41 = VERTEX_POINT ( 'NONE', #9 ) ;
#42 = VERTEX_POINT ( 'NONE', #149 ) ;
#43 = PERSON_AND_ORGANIZATION_ROLE ( 'creator' ) ;
#44 = TOROIDAL_SURFACE ( 'NONE', #32, 5.699999999999999289, 0.2000000000000000111 ) ;
#45 = DIRECTION ( 'NONE',  ( 1.000000000000000000, 0.000000000000000000, 0.000000000000000000 ) ) ;
#46 = DIRECTION ( 'NONE',  ( 0.000000000000000000, 0.000000000000000000, 1.000000000000000000 ) ) ;
#47 = DIRECTION ( 'NONE',  ( 0.000000000000000000, 0.000000000000000000, 1.000000000000000000 ) ) ;
#48 = CARTESIAN_POINT ( 'NONE',  ( 5.699999999999999289, 0.000000000000000000, 5.199999999999982414 ) ) ;
#49 = FACE_OUTER_BOUND ( 'NONE', #250, .T. ) ;
#50 =( LENGTH_UNIT ( ) NAMED_UNIT ( * ) SI_UNIT ( .MILLI., .METRE. ) );
#51 = CC_DESIGN_PERSON_AND_ORGANIZATION_ASSIGNMENT ( #152, #170, ( #18 ) ) ;
#52 = CARTESIAN_POINT ( 'NONE',  ( 5.500000000000000000, 6.735557395310442023E-16, 5.199999999999982414 ) ) ;
#53 = LINE ( 'NONE', #146, #277 ) ;
#54 = CIRCLE ( 'NONE', #66, 5.500000000000000000 ) ;
#55 = APPROVAL_PERSON_ORGANIZATION ( #83, #108, #173 ) ;
#56 = DIRECTION ( 'NONE',  ( 1.000000000000000000, 0.000000000000000000, 0.000000000000000000 ) ) ;
#57 = DIRECTION ( 'NONE',  ( 0.000000000000000000, 0.000000000000000000, 1.000000000000000000 ) ) ;
#58 = APPROVAL_STATUS ( 'not_yet_approved' ) ;
#59 = CC_DESIGN_DATE_AND_TIME_ASSIGNMENT ( #192, #223, ( #269 ) ) ;
#60 = APPROVAL_STATUS ( 'not_yet_approved' ) ;
#61 = ORIENTED_EDGE ( 'NONE', *, *, #8, .F. ) ;
#62 = PERSON ( 'NEURÈENÝ', 'NEURÈENÝ', 'NEURÈENÝ', ('NEURÈENÝ'), ('NEURÈENÝ'), ('NEURÈENÝ') ) ;
#63 = AXIS2_PLACEMENT_3D ( 'NONE', #290, #219, #291 ) ;
#64 = ORIENTED_EDGE ( 'NONE', *, *, #168, .F. ) ;
#65 = ADVANCED_FACE ( 'NONE', ( #191 ), #104, .F. ) ;
#66 = AXIS2_PLACEMENT_3D ( 'NONE', #71, #1, #183 ) ;
#67 = DIRECTION ( 'NONE',  ( 1.000000000000000000, 0.000000000000000000, 0.000000000000000000 ) ) ;
#68 = DIRECTION ( 'NONE',  ( 0.000000000000000000, 0.000000000000000000, 1.000000000000000000 ) ) ;
#69 = DIRECTION ( 'NONE',  ( -0.000000000000000000, -0.000000000000000000, -1.000000000000000000 ) ) ;
#70 = ORIENTED_EDGE ( 'NONE', *, *, #283, .F. ) ;
#71 = CARTESIAN_POINT ( 'NONE',  ( 0.000000000000000000, 0.000000000000000000, 505.0000000000000000 ) ) ;
#72 = PRODUCT_RELATED_PRODUCT_CATEGORY ( 'detail', '', ( #294 ) ) ;
#73 = VERTEX_POINT ( 'NONE', #77 ) ;
#74 = DIRECTION ( 'NONE',  ( 1.000000000000000000, 0.000000000000000000, 0.000000000000000000 ) ) ;
#75 = AXIS2_PLACEMENT_3D ( 'NONE', #179, #47, #232 ) ;
#76 = AXIS2_PLACEMENT_3D ( 'NONE', #213, #184, #92 ) ;
#77 = CARTESIAN_POINT ( 'NONE',  ( -5.500000000000000000, 0.000000000000000000, 505.0000000000000000 ) ) ;
#78 = CARTESIAN_POINT ( 'NONE',  ( -8.000000000000000000, 0.000000000000000000, 5.000000000000000000 ) ) ;
#79 = DATE_AND_TIME ( #154, #241 ) ;
#80 = DATE_AND_TIME ( #292, #306 ) ;
#81 = CC_DESIGN_PERSON_AND_ORGANIZATION_ASSIGNMENT ( #279, #268, ( #294 ) ) ;
#82 = ORIENTED_EDGE ( 'NONE', *, *, #239, .F. ) ;
#83 = PERSON_AND_ORGANIZATION ( #62, #109 ) ;
#84 = ORIENTED_EDGE ( 'NONE', *, *, #101, .T. ) ;
#85 = PERSON_AND_ORGANIZATION_ROLE ( 'design_supplier' ) ;
#86 = CIRCLE ( 'NONE', #242, 8.000000000000000000 ) ;
#87 = LOCAL_TIME ( 11, 48, 26.00000000000000000, #11 ) ;
#88 = DIRECTION ( 'NONE',  ( -0.000000000000000000, -0.000000000000000000, -1.000000000000000000 ) ) ;
#89 = MANIFOLD_SOLID_BREP ( 'Zaoblit1', #142 ) ;
#90 = CYLINDRICAL_SURFACE ( 'NONE', #107, 8.000000000000000000 ) ;
#91 = AXIS2_PLACEMENT_3D ( 'NONE', #196, #57, #56 ) ;
#92 = DIRECTION ( 'NONE',  ( -1.000000000000000000, 1.224646799147353454E-16, 0.000000000000000000 ) ) ;
#93 = CARTESIAN_POINT ( 'NONE',  ( -5.500000000000000000, 0.000000000000000000, 5.199999999999982414 ) ) ;
#94 = ORIENTED_EDGE ( 'NONE', *, *, #159, .F. ) ;
#95 = DIRECTION ( 'NONE',  ( -0.000000000000000000, -0.000000000000000000, -1.000000000000000000 ) ) ;
#96 = CARTESIAN_POINT ( 'NONE',  ( 0.000000000000000000, 0.000000000000000000, 0.000000000000000000 ) ) ;
#97 = ORIENTED_EDGE ( 'NONE', *, *, #99, .F. ) ;
#98 = CARTESIAN_POINT ( 'NONE',  ( 5.699999999999999289, 0.000000000000000000, 4.999999999999991118 ) ) ;
#99 = EDGE_CURVE ( 'NONE', #185, #110, #266, .T. ) ;
#100 = CARTESIAN_POINT ( 'NONE',  ( 0.000000000000000000, 0.000000000000000000, 5.199999999999982414 ) ) ;
#101 = EDGE_CURVE ( 'NONE', #120, #110, #299, .T. ) ;
#102 = EDGE_CURVE ( 'NONE', #110, #120, #165, .T. ) ;
#103 = CC_DESIGN_SECURITY_CLASSIFICATION ( #18, ( #289 ) ) ;
#104 = PLANE ( 'NONE',  #63 ) ;
#105 = CYLINDRICAL_SURFACE ( 'NONE', #304, 8.000000000000000000 ) ;
#106 = COORDINATED_UNIVERSAL_TIME_OFFSET ( 1, 0, .AHEAD. ) ;
#107 = AXIS2_PLACEMENT_3D ( 'NONE', #3, #95, #156 ) ;
#108 = APPROVAL ( #228, 'NEURÈENÝ' ) ;
#109 = ORGANIZATION ( 'NEURÈENÝ', 'NEURÈENÝ', '' ) ;
#110 = VERTEX_POINT ( 'NONE', #37 ) ;
#111 = PERSON_AND_ORGANIZATION ( #62, #109 ) ;
#112 = ORIENTED_EDGE ( 'NONE', *, *, #177, .F. ) ;
#113 = PERSON_AND_ORGANIZATION ( #62, #109 ) ;
#114 = ADVANCED_FACE ( 'NONE', ( #167 ), #244, .T. ) ;
#115 = PERSON_AND_ORGANIZATION ( #62, #109 ) ;
#116 = DIRECTION ( 'NONE',  ( -0.000000000000000000, -0.000000000000000000, -1.000000000000000000 ) ) ;
#117 =( NAMED_UNIT ( * ) SI_UNIT ( $, .STERADIAN. ) SOLID_ANGLE_UNIT ( ) );
#118 = CARTESIAN_POINT ( 'NONE',  ( 0.000000000000000000, 0.000000000000000000, 505.0000000000000000 ) ) ;
#119 = ORIENTED_EDGE ( 'NONE', *, *, #102, .T. ) ;
#120 = VERTEX_POINT ( 'NONE', #10 ) ;
#121 = ADVANCED_BREP_SHAPE_REPRESENTATION ( '79f6', ( #89, #305 ), #249 ) ;
#122 = ORIENTED_EDGE ( 'NONE', *, *, #168, .T. ) ;
#123 = EDGE_LOOP ( 'NONE', ( #82, #153, #182, #257 ) ) ;
#124 = ADVANCED_FACE ( 'NONE', ( #128 ), #105, .T. ) ;
#125 = PLANE ( 'NONE',  #163 ) ;
#126 = CARTESIAN_POINT ( 'NONE',  ( 0.000000000000000000, 0.000000000000000000, 505.0000000000000000 ) ) ;
#127 = AXIS2_PLACEMENT_3D ( 'NONE', #148, #245, #267 ) ;
#128 = FACE_OUTER_BOUND ( 'NONE', #160, .T. ) ;
#129 = DIRECTION ( 'NONE',  ( -0.000000000000000000, -0.000000000000000000, -1.000000000000000000 ) ) ;
#130 = CALENDAR_DATE ( 2022, 7, 7 ) ;
#131 = APPLICATION_PROTOCOL_DEFINITION ( 'international standard', 'config_control_design', 1994, #39 ) ;
#132 = AXIS2_PLACEMENT_3D ( 'NONE', #19, #116, #178 ) ;
#133 = EDGE_CURVE ( 'NONE', #16, #282, #274, .T. ) ;
#134 = ORIENTED_EDGE ( 'NONE', *, *, #239, .T. ) ;
#135 = VERTEX_POINT ( 'NONE', #93 ) ;
#136 = APPLICATION_PROTOCOL_DEFINITION ( 'international standard', 'config_control_design', 1994, #33 ) ;
#137 = CARTESIAN_POINT ( 'NONE',  ( 0.000000000000000000, 0.000000000000000000, 5.000000000000000000 ) ) ;
#138 = CC_DESIGN_PERSON_AND_ORGANIZATION_ASSIGNMENT ( #113, #43, ( #269 ) ) ;
#139 = ORIENTED_EDGE ( 'NONE', *, *, #159, .T. ) ;
#140 = DIRECTION ( 'NONE',  ( 0.000000000000000000, 0.000000000000000000, -1.000000000000000000 ) ) ;
#141 = ORIENTED_EDGE ( 'NONE', *, *, #6, .T. ) ;
#142 = CLOSED_SHELL ( 'NONE', ( #272, #189, #4, #124, #20, #65, #114, #216, #194 ) ) ;
#143 = DIRECTION ( 'NONE',  ( 1.000000000000000000, 0.000000000000000000, -0.000000000000000000 ) ) ;
#144 = ORIENTED_EDGE ( 'NONE', *, *, #102, .F. ) ;
#145 = DIRECTION ( 'NONE',  ( 0.000000000000000000, 0.000000000000000000, 1.000000000000000000 ) ) ;
#146 = CARTESIAN_POINT ( 'NONE',  ( 5.500000000000000000, 6.735557395310442023E-16, 505.0000000000000000 ) ) ;
#147 = CC_DESIGN_PERSON_AND_ORGANIZATION_ASSIGNMENT ( #111, #85, ( #289 ) ) ;
#148 = CARTESIAN_POINT ( 'NONE',  ( 0.000000000000000000, 0.000000000000000000, 0.000000000000000000 ) ) ;
#149 = CARTESIAN_POINT ( 'NONE',  ( 8.000000000000000000, 9.797174393178825657E-16, 5.000000000000000000 ) ) ;
#150 = EDGE_CURVE ( 'NONE', #275, #282, #195, .T. ) ;
#151 = SECURITY_CLASSIFICATION_LEVEL ( 'unclassified' ) ;
#152 = PERSON_AND_ORGANIZATION ( #62, #109 ) ;
#153 = ORIENTED_EDGE ( 'NONE', *, *, #203, .F. ) ;
#154 = CALENDAR_DATE ( 2022, 7, 7 ) ;
#155 = DIRECTION ( 'NONE',  ( -1.000000000000000000, 0.000000000000000000, 0.000000000000000000 ) ) ;
#156 = DIRECTION ( 'NONE',  ( -1.000000000000000000, 0.000000000000000000, 0.000000000000000000 ) ) ;
#157 = DIRECTION ( 'NONE',  ( 0.000000000000000000, -1.000000000000000000, 0.000000000000000000 ) ) ;
#158 = FACE_OUTER_BOUND ( 'NONE', #260, .T. ) ;
#159 = EDGE_CURVE ( 'NONE', #42, #120, #233, .T. ) ;
#160 = EDGE_LOOP ( 'NONE', ( #94, #2, #26, #119 ) ) ;
#161 = DIRECTION ( 'NONE',  ( -0.000000000000000000, -0.000000000000000000, -1.000000000000000000 ) ) ;
#162 = TOROIDAL_SURFACE ( 'NONE', #248, 5.699999999999999289, 0.2000000000000000111 ) ;
#163 = AXIS2_PLACEMENT_3D ( 'NONE', #263, #211, #187 ) ;
#164 = DIRECTION ( 'NONE',  ( 1.000000000000000000, 0.000000000000000000, 0.000000000000000000 ) ) ;
#165 = CIRCLE ( 'NONE', #91, 8.000000000000000000 ) ;
#166 = LOCAL_TIME ( 11, 48, 26.00000000000000000, #106 ) ;
#167 = FACE_OUTER_BOUND ( 'NONE', #123, .T. ) ;
#168 = EDGE_CURVE ( 'NONE', #282, #16, #264, .T. ) ;
#169 = DIRECTION ( 'NONE',  ( -0.000000000000000000, -0.000000000000000000, -1.000000000000000000 ) ) ;
#170 = PERSON_AND_ORGANIZATION_ROLE ( 'classification_officer' ) ;
#171 = PERSON_AND_ORGANIZATION ( #62, #109 ) ;
#172 = EDGE_LOOP ( 'NONE', ( #61, #134, #255, #210 ) ) ;
#173 = APPROVAL_ROLE ( '' ) ;
#174 = ORIENTED_EDGE ( 'NONE', *, *, #283, .T. ) ;
#175 = AXIS2_PLACEMENT_3D ( 'NONE', #258, #68, #143 ) ;
#176 = CC_DESIGN_APPROVAL ( #108, ( #269 ) ) ;
#177 = EDGE_CURVE ( 'NONE', #275, #135, #207, .T. ) ;
#178 = DIRECTION ( 'NONE',  ( 1.000000000000000000, 0.000000000000000000, 0.000000000000000000 ) ) ;
#179 = CARTESIAN_POINT ( 'NONE',  ( 0.000000000000000000, 0.000000000000000000, 5.000000000000000000 ) ) ;
#180 = EDGE_CURVE ( 'NONE', #42, #185, #86, .T. ) ;
#181 = DIRECTION ( 'NONE',  ( -0.000000000000000000, -0.000000000000000000, -1.000000000000000000 ) ) ;
#182 = ORIENTED_EDGE ( 'NONE', *, *, #246, .T. ) ;
#183 = DIRECTION ( 'NONE',  ( 1.000000000000000000, 0.000000000000000000, 0.000000000000000000 ) ) ;
#184 = DIRECTION ( 'NONE',  ( 1.224646799147353207E-16, 1.000000000000000000, -0.000000000000000000 ) ) ;
#185 = VERTEX_POINT ( 'NONE', #231 ) ;
#186 = CARTESIAN_POINT ( 'NONE',  ( 0.000000000000000000, 0.000000000000000000, 5.199999999999982414 ) ) ;
#187 = DIRECTION ( 'NONE',  ( 1.000000000000000000, 0.000000000000000000, -0.000000000000000000 ) ) ;
#188 = AXIS2_PLACEMENT_3D ( 'NONE', #126, #145, #164 ) ;
#189 = ADVANCED_FACE ( 'NONE', ( #280 ), #21, .T. ) ;
#190 = CARTESIAN_POINT ( 'NONE',  ( 0.000000000000000000, 0.000000000000000000, 5.000000000000000000 ) ) ;
#191 = FACE_OUTER_BOUND ( 'NONE', #295, .T. ) ;
#192 = DATE_AND_TIME ( #130, #87 ) ;
#193 = APPROVAL ( #58, 'NEURÈENÝ' ) ;
#194 = ADVANCED_FACE ( 'NONE', ( #287 ), #162, .F. ) ;
#195 = CIRCLE ( 'NONE', #7, 0.1999999999999996503 ) ;
#196 = CARTESIAN_POINT ( 'NONE',  ( 0.000000000000000000, 0.000000000000000000, 0.000000000000000000 ) ) ;
#197 = PERSON_AND_ORGANIZATION ( #62, #109 ) ;
#198 = CIRCLE ( 'NONE', #76, 0.1999999999999996503 ) ;
#199 = CC_DESIGN_PERSON_AND_ORGANIZATION_ASSIGNMENT ( #171, #13, ( #289 ) ) ;
#200 = ORIENTED_EDGE ( 'NONE', *, *, #180, .T. ) ;
#201 = DATE_TIME_ROLE ( 'classification_date' ) ;
#202 = EDGE_LOOP ( 'NONE', ( #122, #227 ) ) ;
#203 = EDGE_CURVE ( 'NONE', #73, #41, #25, .T. ) ;
#204 = AXIS2_PLACEMENT_3D ( 'NONE', #36, #129, #221 ) ;
#205 = CARTESIAN_POINT ( 'NONE',  ( 0.000000000000000000, 0.000000000000000000, 5.199999999999982414 ) ) ;
#206 = DIRECTION ( 'NONE',  ( -0.000000000000000000, -0.000000000000000000, -1.000000000000000000 ) ) ;
#207 = CIRCLE ( 'NONE', #215, 5.500000000000000000 ) ;
#208 = CC_DESIGN_APPROVAL ( #193, ( #18 ) ) ;
#209 = CARTESIAN_POINT ( 'NONE',  ( -5.699999999999999289, 6.980486755139912122E-16, 4.999999999999991118 ) ) ;
#210 = ORIENTED_EDGE ( 'NONE', *, *, #246, .F. ) ;
#211 = DIRECTION ( 'NONE',  ( 0.000000000000000000, 0.000000000000000000, 1.000000000000000000 ) ) ;
#212 = FACE_BOUND ( 'NONE', #202, .T. ) ;
#213 = CARTESIAN_POINT ( 'NONE',  ( -5.699999999999999289, 6.980486755139912122E-16, 5.199999999999982414 ) ) ;
#214 = LINE ( 'NONE', #237, #217 ) ;
#215 = AXIS2_PLACEMENT_3D ( 'NONE', #205, #46, #300 ) ;
#216 = ADVANCED_FACE ( 'NONE', ( #5 ), #125, .T. ) ;
#217 = VECTOR ( 'NONE', #161, 1000.000000000000000 ) ;
#218 = DESIGN_CONTEXT ( 'detailed design', #39, 'design' ) ;
#219 = DIRECTION ( 'NONE',  ( 0.000000000000000000, 0.000000000000000000, 1.000000000000000000 ) ) ;
#220 = CALENDAR_DATE ( 2022, 7, 7 ) ;
#221 = DIRECTION ( 'NONE',  ( -1.000000000000000000, 0.000000000000000000, 0.000000000000000000 ) ) ;
#222 = DATE_AND_TIME ( #38, #166 ) ;
#223 = DATE_TIME_ROLE ( 'creation_date' ) ;
#224 = APPROVAL_PERSON_ORGANIZATION ( #115, #254, #17 ) ;
#225 = ORIENTED_EDGE ( 'NONE', *, *, #133, .F. ) ;
#226 = PRODUCT_DEFINITION_SHAPE ( 'NONE', 'NONE',  #269 ) ;
#227 = ORIENTED_EDGE ( 'NONE', *, *, #133, .T. ) ;
#228 = APPROVAL_STATUS ( 'not_yet_approved' ) ;
#229 = CARTESIAN_POINT ( 'NONE',  ( 8.000000000000000000, 9.797174393178825657E-16, 5.000000000000000000 ) ) ;
#230 = MECHANICAL_CONTEXT ( 'NONE', #33, 'mechanical' ) ;
#231 = CARTESIAN_POINT ( 'NONE',  ( -8.000000000000000000, 0.000000000000000000, 5.000000000000000000 ) ) ;
#232 = DIRECTION ( 'NONE',  ( 1.000000000000000000, 0.000000000000000000, 0.000000000000000000 ) ) ;
#233 = LINE ( 'NONE', #229, #240 ) ;
#234 = VECTOR ( 'NONE', #169, 1000.000000000000000 ) ;
#235 = ORIENTED_EDGE ( 'NONE', *, *, #150, .F. ) ;
#236 = CARTESIAN_POINT ( 'NONE',  ( 0.000000000000000000, 0.000000000000000000, 5.199999999999982414 ) ) ;
#237 = CARTESIAN_POINT ( 'NONE',  ( -5.500000000000000000, 0.000000000000000000, 505.0000000000000000 ) ) ;
#238 = DIRECTION ( 'NONE',  ( 0.000000000000000000, 0.000000000000000000, 1.000000000000000000 ) ) ;
#239 = EDGE_CURVE ( 'NONE', #41, #275, #53, .T. ) ;
#240 = VECTOR ( 'NONE', #181, 1000.000000000000000 ) ;
#241 = LOCAL_TIME ( 11, 48, 26.00000000000000000, #251 ) ;
#242 = AXIS2_PLACEMENT_3D ( 'NONE', #137, #276, #67 ) ;
#243 = CC_DESIGN_APPROVAL ( #254, ( #289 ) ) ;
#244 = CYLINDRICAL_SURFACE ( 'NONE', #204, 5.500000000000000000 ) ;
#245 = DIRECTION ( 'NONE',  ( 0.000000000000000000, 0.000000000000000000, 1.000000000000000000 ) ) ;
#246 = EDGE_CURVE ( 'NONE', #73, #135, #214, .T. ) ;
#247 = DATE_AND_TIME ( #220, #35 ) ;
#248 = AXIS2_PLACEMENT_3D ( 'NONE', #100, #238, #30 ) ;
#249 =( GEOMETRIC_REPRESENTATION_CONTEXT ( 3 ) GLOBAL_UNCERTAINTY_ASSIGNED_CONTEXT ( ( #265 ) ) GLOBAL_UNIT_ASSIGNED_CONTEXT ( ( #50, #302, #117 ) ) REPRESENTATION_CONTEXT ( 'NONE', 'WORKASPACE' ) );
#250 = EDGE_LOOP ( 'NONE', ( #141, #200 ) ) ;
#251 = COORDINATED_UNIVERSAL_TIME_OFFSET ( 1, 0, .AHEAD. ) ;
#252 = CIRCLE ( 'NONE', #75, 8.000000000000000000 ) ;
#253 = CARTESIAN_POINT ( 'NONE',  ( 0.000000000000000000, 0.000000000000000000, 5.000000000000000000 ) ) ;
#254 = APPROVAL ( #60, 'NEURÈENÝ' ) ;
#255 = ORIENTED_EDGE ( 'NONE', *, *, #177, .T. ) ;
#256 = DIRECTION ( 'NONE',  ( 1.000000000000000000, 0.000000000000000000, 0.000000000000000000 ) ) ;
#257 = ORIENTED_EDGE ( 'NONE', *, *, #23, .T. ) ;
#258 = CARTESIAN_POINT ( 'NONE',  ( 0.000000000000000000, 0.000000000000000000, 5.000000000000000000 ) ) ;
#259 = DIRECTION ( 'NONE',  ( 0.000000000000000000, 0.000000000000000000, 1.000000000000000000 ) ) ;
#260 = EDGE_LOOP ( 'NONE', ( #281, #139, #84, #97 ) ) ;
#261 = APPROVAL_PERSON_ORGANIZATION ( #197, #193, #270 ) ;
#262 = DIRECTION ( 'NONE',  ( -0.000000000000000000, -0.000000000000000000, -1.000000000000000000 ) ) ;
#263 = CARTESIAN_POINT ( 'NONE',  ( 0.000000000000000000, 0.000000000000000000, 505.0000000000000000 ) ) ;
#264 = CIRCLE ( 'NONE', #132, 5.699999999999999289 ) ;
#265 = UNCERTAINTY_MEASURE_WITH_UNIT (LENGTH_MEASURE( 1.000000000000000082E-05 ), #50, 'distance_accuracy_value', 'NONE');
#266 = LINE ( 'NONE', #78, #234 ) ;
#267 = DIRECTION ( 'NONE',  ( 1.000000000000000000, 0.000000000000000000, 0.000000000000000000 ) ) ;
#268 = PERSON_AND_ORGANIZATION_ROLE ( 'design_owner' ) ;
#269 = PRODUCT_DEFINITION ( 'NEZNÁMÝ', '', #289, #218 ) ;
#270 = APPROVAL_ROLE ( '' ) ;
#271 = ORIENTED_EDGE ( 'NONE', *, *, #101, .F. ) ;
#272 = ADVANCED_FACE ( 'NONE', ( #28 ), #44, .F. ) ;
#273 = SHAPE_DEFINITION_REPRESENTATION ( #226, #121 ) ;
#274 = CIRCLE ( 'NONE', #31, 5.699999999999999289 ) ;
#275 = VERTEX_POINT ( 'NONE', #52 ) ;
#276 = DIRECTION ( 'NONE',  ( 0.000000000000000000, 0.000000000000000000, 1.000000000000000000 ) ) ;
#277 = VECTOR ( 'NONE', #262, 1000.000000000000000 ) ;
#278 = PLANE ( 'NONE',  #175 ) ;
#279 = PERSON_AND_ORGANIZATION ( #62, #109 ) ;
#280 = FACE_OUTER_BOUND ( 'NONE', #172, .T. ) ;
#281 = ORIENTED_EDGE ( 'NONE', *, *, #180, .F. ) ;
#282 = VERTEX_POINT ( 'NONE', #98 ) ;
#283 = EDGE_CURVE ( 'NONE', #135, #16, #198, .T. ) ;
#284 = EDGE_LOOP ( 'NONE', ( #307, #12 ) ) ;
#285 = DIRECTION ( 'NONE',  ( 0.000000000000000000, 0.000000000000000000, 1.000000000000000000 ) ) ;
#286 = AXIS2_PLACEMENT_3D ( 'NONE', #236, #27, #301 ) ;
#287 = FACE_OUTER_BOUND ( 'NONE', #14, .T. ) ;
#288 = AXIS2_PLACEMENT_3D ( 'NONE', #118, #206, #303 ) ;
#289 = PRODUCT_DEFINITION_FORMATION_WITH_SPECIFIED_SOURCE ( 'LIBOVOLNÝ', '', #294, .NOT_KNOWN. ) ;
#290 = CARTESIAN_POINT ( 'NONE',  ( 0.000000000000000000, 0.000000000000000000, 0.000000000000000000 ) ) ;
#291 = DIRECTION ( 'NONE',  ( 1.000000000000000000, 0.000000000000000000, -0.000000000000000000 ) ) ;
#292 = CALENDAR_DATE ( 2022, 7, 7 ) ;
#293 = APPROVAL_DATE_TIME ( #79, #108 ) ;
#294 = PRODUCT ( '79f6', '79f6', '', ( #230 ) ) ;
#295 = EDGE_LOOP ( 'NONE', ( #144, #271 ) ) ;
#296 = APPROVAL_DATE_TIME ( #247, #193 ) ;
#297 = ORIENTED_EDGE ( 'NONE', *, *, #23, .F. ) ;
#298 = APPROVAL_DATE_TIME ( #80, #254 ) ;
#299 = CIRCLE ( 'NONE', #127, 8.000000000000000000 ) ;
#300 = DIRECTION ( 'NONE',  ( 1.000000000000000000, 0.000000000000000000, 0.000000000000000000 ) ) ;
#301 = DIRECTION ( 'NONE',  ( 1.000000000000000000, 0.000000000000000000, 0.000000000000000000 ) ) ;
#302 =( NAMED_UNIT ( * ) PLANE_ANGLE_UNIT ( ) SI_UNIT ( $, .RADIAN. ) );
#303 = DIRECTION ( 'NONE',  ( -1.000000000000000000, 0.000000000000000000, 0.000000000000000000 ) ) ;
#304 = AXIS2_PLACEMENT_3D ( 'NONE', #190, #69, #155 ) ;
#305 = AXIS2_PLACEMENT_3D ( 'NONE', #96, #259, #45 ) ;
#306 = LOCAL_TIME ( 11, 48, 26.00000000000000000, #40 ) ;
#307 = ORIENTED_EDGE ( 'NONE', *, *, #203, .T. ) ;
ENDSEC;
END-ISO-10303-21;
