ISO-10303-21;
HEADER;
FILE_DESCRIPTION (( 'STEP AP203' ),
    '1' );
FILE_NAME ('1ca9.STEP',
    '2023-02-12T12:44:27',
    ( '' ),
    ( '' ),
    'SwSTEP 2.0',
    'SolidWorks 2019',
    '' );
FILE_SCHEMA (( 'CONFIG_CONTROL_DESIGN' ));
ENDSEC;

DATA;
#1 = CARTESIAN_POINT ( 'NONE',  ( 0.000000000000000000, 0.000000000000000000, 3.000000000000000000 ) ) ;
#2 = SHAPE_DEFINITION_REPRESENTATION ( #16, #47 ) ;
#3 = ORIENTED_EDGE ( 'NONE', *, *, #79, .T. ) ;
#4 = AXIS2_PLACEMENT_3D ( 'NONE', #9, #7, #208 ) ;
#5 = DIRECTION ( 'NONE',  ( 1.000000000000000000, 0.000000000000000000, 0.000000000000000000 ) ) ;
#6 = CARTESIAN_POINT ( 'NONE',  ( 0.000000000000000000, 0.000000000000000000, 200.0000000000000000 ) ) ;
#7 = DIRECTION ( 'NONE',  ( 0.000000000000000000, 0.000000000000000000, 1.000000000000000000 ) ) ;
#8 = ORGANIZATION ( 'NEURÈENÝ', 'NEURÈENÝ', '' ) ;
#9 = CARTESIAN_POINT ( 'NONE',  ( 0.000000000000000000, 0.000000000000000000, 3.000000000000000000 ) ) ;
#10 = CARTESIAN_POINT ( 'NONE',  ( 3.000000000000000444, 3.673940397442060361E-16, 0.000000000000000000 ) ) ;
#11 =( NAMED_UNIT ( * ) SI_UNIT ( $, .STERADIAN. ) SOLID_ANGLE_UNIT ( ) );
#12 = PERSON_AND_ORGANIZATION_ROLE ( 'classification_officer' ) ;
#13 = EDGE_CURVE ( 'NONE', #62, #105, #82, .T. ) ;
#14 = AXIS2_PLACEMENT_3D ( 'NONE', #1, #17, #20 ) ;
#15 = COORDINATED_UNIVERSAL_TIME_OFFSET ( 1, 0, .AHEAD. ) ;
#16 = PRODUCT_DEFINITION_SHAPE ( 'NONE', 'NONE',  #86 ) ;
#17 = DIRECTION ( 'NONE',  ( -0.000000000000000000, -0.000000000000000000, -1.000000000000000000 ) ) ;
#18 = EDGE_LOOP ( 'NONE', ( #61, #103 ) ) ;
#19 = VECTOR ( 'NONE', #111, 1000.000000000000000 ) ;
#20 = DIRECTION ( 'NONE',  ( -1.000000000000000000, 0.000000000000000000, 0.000000000000000000 ) ) ;
#21 = CC_DESIGN_PERSON_AND_ORGANIZATION_ASSIGNMENT ( #117, #118, ( #37 ) ) ;
#22 = APPROVAL_PERSON_ORGANIZATION ( #195, #120, #249 ) ;
#23 = ORIENTED_EDGE ( 'NONE', *, *, #179, .F. ) ;
#24 = ORIENTED_EDGE ( 'NONE', *, *, #48, .T. ) ;
#25 = CARTESIAN_POINT ( 'NONE',  ( 0.000000000000000000, 0.000000000000000000, 200.0000000000000000 ) ) ;
#26 = CC_DESIGN_APPROVAL ( #120, ( #146 ) ) ;
#27 = DIRECTION ( 'NONE',  ( -0.000000000000000000, -0.000000000000000000, -1.000000000000000000 ) ) ;
#28 = APPROVAL ( #42, 'NEURÈENÝ' ) ;
#29 = CARTESIAN_POINT ( 'NONE',  ( -1.600000000000000089, 0.000000000000000000, 200.0000000000000000 ) ) ;
#30 = LINE ( 'NONE', #171, #19 ) ;
#31 = FACE_OUTER_BOUND ( 'NONE', #18, .T. ) ;
#32 = COORDINATED_UNIVERSAL_TIME_OFFSET ( 1, 0, .AHEAD. ) ;
#33 = DIRECTION ( 'NONE',  ( 1.000000000000000000, 0.000000000000000000, 0.000000000000000000 ) ) ;
#34 = DATE_AND_TIME ( #216, #164 ) ;
#35 = ADVANCED_FACE ( 'NONE', ( #39 ), #121, .T. ) ;
#36 = AXIS2_PLACEMENT_3D ( 'NONE', #25, #186, #5 ) ;
#37 = PRODUCT ( '1ca9', '1ca9', '', ( #178 ) ) ;
#38 = CC_DESIGN_APPROVAL ( #214, ( #86 ) ) ;
#39 = FACE_OUTER_BOUND ( 'NONE', #46, .T. ) ;
#40 = DIRECTION ( 'NONE',  ( 1.000000000000000000, 0.000000000000000000, 0.000000000000000000 ) ) ;
#41 = VECTOR ( 'NONE', #91, 1000.000000000000000 ) ;
#42 = APPROVAL_STATUS ( 'not_yet_approved' ) ;
#43 = ORIENTED_EDGE ( 'NONE', *, *, #102, .T. ) ;
#44 = APPROVAL_DATE_TIME ( #202, #28 ) ;
#45 = EDGE_LOOP ( 'NONE', ( #181, #185, #63, #144 ) ) ;
#46 = EDGE_LOOP ( 'NONE', ( #123, #145, #238, #165 ) ) ;
#47 = ADVANCED_BREP_SHAPE_REPRESENTATION ( '1ca9', ( #126, #93 ), #60 ) ;
#48 = EDGE_CURVE ( 'NONE', #236, #237, #59, .T. ) ;
#49 = CYLINDRICAL_SURFACE ( 'NONE', #193, 1.600000000000000089 ) ;
#50 = LOCAL_TIME ( 13, 44, 27.00000000000000000, #15 ) ;
#51 = DIRECTION ( 'NONE',  ( -0.000000000000000000, -0.000000000000000000, -1.000000000000000000 ) ) ;
#52 = CYLINDRICAL_SURFACE ( 'NONE', #150, 3.000000000000000444 ) ;
#53 = DIRECTION ( 'NONE',  ( 1.000000000000000000, 0.000000000000000000, 0.000000000000000000 ) ) ;
#54 = CIRCLE ( 'NONE', #230, 3.000000000000000444 ) ;
#55 = PLANE ( 'NONE',  #99 ) ;
#56 = CARTESIAN_POINT ( 'NONE',  ( 1.600000000000000089, 1.959434878635765230E-16, 3.000000000000000000 ) ) ;
#57 = PERSON_AND_ORGANIZATION ( #156, #8 ) ;
#58 = DIRECTION ( 'NONE',  ( 0.000000000000000000, 0.000000000000000000, 1.000000000000000000 ) ) ;
#59 = CIRCLE ( 'NONE', #162, 1.600000000000000089 ) ;
#60 =( GEOMETRIC_REPRESENTATION_CONTEXT ( 3 ) GLOBAL_UNCERTAINTY_ASSIGNED_CONTEXT ( ( #212 ) ) GLOBAL_UNIT_ASSIGNED_CONTEXT ( ( #75, #134, #11 ) ) REPRESENTATION_CONTEXT ( 'NONE', 'WORKASPACE' ) );
#61 = ORIENTED_EDGE ( 'NONE', *, *, #116, .T. ) ;
#62 = VERTEX_POINT ( 'NONE', #64 ) ;
#63 = ORIENTED_EDGE ( 'NONE', *, *, #197, .T. ) ;
#64 = CARTESIAN_POINT ( 'NONE',  ( 1.600000000000000089, 1.959434878635765230E-16, 200.0000000000000000 ) ) ;
#65 = EDGE_LOOP ( 'NONE', ( #23, #255 ) ) ;
#66 = ADVANCED_FACE ( 'NONE', ( #67 ), #49, .T. ) ;
#67 = FACE_OUTER_BOUND ( 'NONE', #251, .T. ) ;
#68 = DIRECTION ( 'NONE',  ( 0.000000000000000000, 0.000000000000000000, 1.000000000000000000 ) ) ;
#69 = ADVANCED_FACE ( 'NONE', ( #127 ), #190, .T. ) ;
#70 = LINE ( 'NONE', #207, #182 ) ;
#71 = CARTESIAN_POINT ( 'NONE',  ( 0.000000000000000000, 0.000000000000000000, 3.000000000000000000 ) ) ;
#72 = CARTESIAN_POINT ( 'NONE',  ( 0.000000000000000000, 0.000000000000000000, 0.000000000000000000 ) ) ;
#73 = LOCAL_TIME ( 13, 44, 27.00000000000000000, #217 ) ;
#74 = CC_DESIGN_PERSON_AND_ORGANIZATION_ASSIGNMENT ( #250, #96, ( #146 ) ) ;
#75 =( LENGTH_UNIT ( ) NAMED_UNIT ( * ) SI_UNIT ( .MILLI., .METRE. ) );
#76 = SECURITY_CLASSIFICATION_LEVEL ( 'unclassified' ) ;
#77 = CIRCLE ( 'NONE', #220, 3.000000000000000444 ) ;
#78 = APPLICATION_PROTOCOL_DEFINITION ( 'international standard', 'config_control_design', 1994, #140 ) ;
#79 = EDGE_CURVE ( 'NONE', #148, #122, #226, .T. ) ;
#80 = PERSON_AND_ORGANIZATION ( #156, #8 ) ;
#81 = ORIENTED_EDGE ( 'NONE', *, *, #48, .F. ) ;
#82 = CIRCLE ( 'NONE', #245, 1.600000000000000089 ) ;
#83 = EDGE_LOOP ( 'NONE', ( #81, #143 ) ) ;
#84 = DIRECTION ( 'NONE',  ( 1.000000000000000000, 0.000000000000000000, 0.000000000000000000 ) ) ;
#85 = AXIS2_PLACEMENT_3D ( 'NONE', #170, #152, #108 ) ;
#86 = PRODUCT_DEFINITION ( 'NEZNÁMÝ', '', #146, #172 ) ;
#87 = CARTESIAN_POINT ( 'NONE',  ( -1.600000000000000089, 0.000000000000000000, 3.000000000000000000 ) ) ;
#88 = DIRECTION ( 'NONE',  ( 0.000000000000000000, 0.000000000000000000, 1.000000000000000000 ) ) ;
#89 = DIRECTION ( 'NONE',  ( 0.000000000000000000, 0.000000000000000000, 1.000000000000000000 ) ) ;
#90 = DIRECTION ( 'NONE',  ( -1.000000000000000000, 0.000000000000000000, 0.000000000000000000 ) ) ;
#91 = DIRECTION ( 'NONE',  ( -0.000000000000000000, -0.000000000000000000, -1.000000000000000000 ) ) ;
#92 = ADVANCED_FACE ( 'NONE', ( #240, #31 ), #112, .T. ) ;
#93 = AXIS2_PLACEMENT_3D ( 'NONE', #137, #98, #33 ) ;
#94 = APPROVAL_PERSON_ORGANIZATION ( #213, #28, #139 ) ;
#95 = DATE_AND_TIME ( #194, #222 ) ;
#96 = PERSON_AND_ORGANIZATION_ROLE ( 'creator' ) ;
#97 = ADVANCED_FACE ( 'NONE', ( #110 ), #52, .T. ) ;
#98 = DIRECTION ( 'NONE',  ( 0.000000000000000000, 0.000000000000000000, 1.000000000000000000 ) ) ;
#99 = AXIS2_PLACEMENT_3D ( 'NONE', #6, #88, #168 ) ;
#100 = APPROVAL_DATE_TIME ( #34, #120 ) ;
#101 = CARTESIAN_POINT ( 'NONE',  ( 0.000000000000000000, 0.000000000000000000, 3.000000000000000000 ) ) ;
#102 = EDGE_CURVE ( 'NONE', #105, #236, #70, .T. ) ;
#103 = ORIENTED_EDGE ( 'NONE', *, *, #252, .T. ) ;
#104 = PRODUCT_RELATED_PRODUCT_CATEGORY ( 'detail', '', ( #37 ) ) ;
#105 = VERTEX_POINT ( 'NONE', #29 ) ;
#106 = CLOSED_SHELL ( 'NONE', ( #69, #97, #35, #92, #205, #66, #128 ) ) ;
#107 = AXIS2_PLACEMENT_3D ( 'NONE', #151, #131, #206 ) ;
#108 = DIRECTION ( 'NONE',  ( 1.000000000000000000, 0.000000000000000000, 0.000000000000000000 ) ) ;
#109 = CARTESIAN_POINT ( 'NONE',  ( -3.000000000000000444, 0.000000000000000000, 0.000000000000000000 ) ) ;
#110 = FACE_OUTER_BOUND ( 'NONE', #204, .T. ) ;
#111 = DIRECTION ( 'NONE',  ( -0.000000000000000000, -0.000000000000000000, -1.000000000000000000 ) ) ;
#112 = PLANE ( 'NONE',  #4 ) ;
#113 = COORDINATED_UNIVERSAL_TIME_OFFSET ( 1, 0, .AHEAD. ) ;
#114 = CC_DESIGN_APPROVAL ( #28, ( #119 ) ) ;
#115 = DATE_AND_TIME ( #138, #50 ) ;
#116 = EDGE_CURVE ( 'NONE', #160, #200, #136, .T. ) ;
#117 = PERSON_AND_ORGANIZATION ( #156, #8 ) ;
#118 = PERSON_AND_ORGANIZATION_ROLE ( 'design_owner' ) ;
#119 = SECURITY_CLASSIFICATION ( '', '', #76 ) ;
#120 = APPROVAL ( #232, 'NEURÈENÝ' ) ;
#121 = CYLINDRICAL_SURFACE ( 'NONE', #14, 3.000000000000000444 ) ;
#122 = VERTEX_POINT ( 'NONE', #109 ) ;
#123 = ORIENTED_EDGE ( 'NONE', *, *, #175, .F. ) ;
#124 = ORIENTED_EDGE ( 'NONE', *, *, #154, .F. ) ;
#125 = DIRECTION ( 'NONE',  ( -0.000000000000000000, -0.000000000000000000, -1.000000000000000000 ) ) ;
#126 = MANIFOLD_SOLID_BREP ( 'Pøidat vysunutím3', #106 ) ;
#127 = FACE_OUTER_BOUND ( 'NONE', #45, .T. ) ;
#128 = ADVANCED_FACE ( 'NONE', ( #187 ), #55, .T. ) ;
#129 = LINE ( 'NONE', #241, #41 ) ;
#130 = AXIS2_PLACEMENT_3D ( 'NONE', #72, #155, #231 ) ;
#131 = DIRECTION ( 'NONE',  ( 0.000000000000000000, 0.000000000000000000, 1.000000000000000000 ) ) ;
#132 = CC_DESIGN_PERSON_AND_ORGANIZATION_ASSIGNMENT ( #57, #135, ( #146 ) ) ;
#133 = DATE_TIME_ROLE ( 'classification_date' ) ;
#134 =( NAMED_UNIT ( * ) PLANE_ANGLE_UNIT ( ) SI_UNIT ( $, .RADIAN. ) );
#135 = PERSON_AND_ORGANIZATION_ROLE ( 'design_supplier' ) ;
#136 = CIRCLE ( 'NONE', #85, 3.000000000000000444 ) ;
#137 = CARTESIAN_POINT ( 'NONE',  ( 0.000000000000000000, 0.000000000000000000, 0.000000000000000000 ) ) ;
#138 = CALENDAR_DATE ( 2023, 12, 2 ) ;
#139 = APPROVAL_ROLE ( '' ) ;
#140 = APPLICATION_CONTEXT ( 'configuration controlled 3d designs of mechanical parts and assemblies' ) ;
#141 = EDGE_CURVE ( 'NONE', #160, #122, #243, .T. ) ;
#142 = APPROVAL_PERSON_ORGANIZATION ( #196, #214, #177 ) ;
#143 = ORIENTED_EDGE ( 'NONE', *, *, #197, .F. ) ;
#144 = ORIENTED_EDGE ( 'NONE', *, *, #102, .F. ) ;
#145 = ORIENTED_EDGE ( 'NONE', *, *, #116, .F. ) ;
#146 = PRODUCT_DEFINITION_FORMATION_WITH_SPECIFIED_SOURCE ( 'LIBOVOLNÝ', '', #37, .NOT_KNOWN. ) ;
#147 = ORIENTED_EDGE ( 'NONE', *, *, #13, .T. ) ;
#148 = VERTEX_POINT ( 'NONE', #10 ) ;
#149 = CARTESIAN_POINT ( 'NONE',  ( 0.000000000000000000, 0.000000000000000000, 0.000000000000000000 ) ) ;
#150 = AXIS2_PLACEMENT_3D ( 'NONE', #71, #125, #191 ) ;
#151 = CARTESIAN_POINT ( 'NONE',  ( 0.000000000000000000, 0.000000000000000000, 3.000000000000000000 ) ) ;
#152 = DIRECTION ( 'NONE',  ( 0.000000000000000000, 0.000000000000000000, 1.000000000000000000 ) ) ;
#153 = CARTESIAN_POINT ( 'NONE',  ( 0.000000000000000000, 0.000000000000000000, 0.000000000000000000 ) ) ;
#154 = EDGE_CURVE ( 'NONE', #62, #237, #129, .T. ) ;
#155 = DIRECTION ( 'NONE',  ( 0.000000000000000000, 0.000000000000000000, 1.000000000000000000 ) ) ;
#156 = PERSON ( 'NEURÈENÝ', 'NEURÈENÝ', 'NEURÈENÝ', ('NEURÈENÝ'), ('NEURÈENÝ'), ('NEURÈENÝ') ) ;
#157 = DATE_AND_TIME ( #248, #159 ) ;
#158 = CC_DESIGN_PERSON_AND_ORGANIZATION_ASSIGNMENT ( #198, #174, ( #86 ) ) ;
#159 = LOCAL_TIME ( 13, 44, 27.00000000000000000, #113 ) ;
#160 = VERTEX_POINT ( 'NONE', #209 ) ;
#161 = ORIENTED_EDGE ( 'NONE', *, *, #141, .F. ) ;
#162 = AXIS2_PLACEMENT_3D ( 'NONE', #101, #180, #84 ) ;
#163 = CIRCLE ( 'NONE', #36, 1.600000000000000089 ) ;
#164 = LOCAL_TIME ( 13, 44, 27.00000000000000000, #234 ) ;
#165 = ORIENTED_EDGE ( 'NONE', *, *, #179, .T. ) ;
#166 = DIRECTION ( 'NONE',  ( -1.000000000000000000, 0.000000000000000000, 0.000000000000000000 ) ) ;
#167 = CC_DESIGN_DATE_AND_TIME_ASSIGNMENT ( #115, #247, ( #86 ) ) ;
#168 = DIRECTION ( 'NONE',  ( 1.000000000000000000, 0.000000000000000000, -0.000000000000000000 ) ) ;
#169 = DIRECTION ( 'NONE',  ( -0.000000000000000000, -0.000000000000000000, -1.000000000000000000 ) ) ;
#170 = CARTESIAN_POINT ( 'NONE',  ( 0.000000000000000000, 0.000000000000000000, 3.000000000000000000 ) ) ;
#171 = CARTESIAN_POINT ( 'NONE',  ( 3.000000000000000444, 3.673940397442060361E-16, 3.000000000000000000 ) ) ;
#172 = DESIGN_CONTEXT ( 'detailed design', #140, 'design' ) ;
#173 = CC_DESIGN_SECURITY_CLASSIFICATION ( #119, ( #146 ) ) ;
#174 = PERSON_AND_ORGANIZATION_ROLE ( 'creator' ) ;
#175 = EDGE_CURVE ( 'NONE', #200, #148, #30, .T. ) ;
#176 = APPROVAL_DATE_TIME ( #95, #214 ) ;
#177 = APPROVAL_ROLE ( '' ) ;
#178 = MECHANICAL_CONTEXT ( 'NONE', #184, 'mechanical' ) ;
#179 = EDGE_CURVE ( 'NONE', #122, #148, #77, .T. ) ;
#180 = DIRECTION ( 'NONE',  ( 0.000000000000000000, 0.000000000000000000, 1.000000000000000000 ) ) ;
#181 = ORIENTED_EDGE ( 'NONE', *, *, #13, .F. ) ;
#182 = VECTOR ( 'NONE', #27, 1000.000000000000000 ) ;
#183 = DIRECTION ( 'NONE',  ( 0.000000000000000000, 0.000000000000000000, 1.000000000000000000 ) ) ;
#184 = APPLICATION_CONTEXT ( 'configuration controlled 3d designs of mechanical parts and assemblies' ) ;
#185 = ORIENTED_EDGE ( 'NONE', *, *, #154, .T. ) ;
#186 = DIRECTION ( 'NONE',  ( 0.000000000000000000, 0.000000000000000000, 1.000000000000000000 ) ) ;
#187 = FACE_OUTER_BOUND ( 'NONE', #201, .T. ) ;
#188 = DIRECTION ( 'NONE',  ( -0.000000000000000000, -0.000000000000000000, -1.000000000000000000 ) ) ;
#189 = CC_DESIGN_DATE_AND_TIME_ASSIGNMENT ( #157, #133, ( #119 ) ) ;
#190 = CYLINDRICAL_SURFACE ( 'NONE', #253, 1.600000000000000089 ) ;
#191 = DIRECTION ( 'NONE',  ( -1.000000000000000000, 0.000000000000000000, 0.000000000000000000 ) ) ;
#192 = DIRECTION ( 'NONE',  ( 1.000000000000000000, 0.000000000000000000, 0.000000000000000000 ) ) ;
#193 = AXIS2_PLACEMENT_3D ( 'NONE', #229, #51, #90 ) ;
#194 = CALENDAR_DATE ( 2023, 12, 2 ) ;
#195 = PERSON_AND_ORGANIZATION ( #156, #8 ) ;
#196 = PERSON_AND_ORGANIZATION ( #156, #8 ) ;
#197 = EDGE_CURVE ( 'NONE', #237, #236, #210, .T. ) ;
#198 = PERSON_AND_ORGANIZATION ( #156, #8 ) ;
#199 = VECTOR ( 'NONE', #188, 1000.000000000000000 ) ;
#200 = VERTEX_POINT ( 'NONE', #227 ) ;
#201 = EDGE_LOOP ( 'NONE', ( #223, #147 ) ) ;
#202 = DATE_AND_TIME ( #221, #73 ) ;
#203 = ORIENTED_EDGE ( 'NONE', *, *, #252, .F. ) ;
#204 = EDGE_LOOP ( 'NONE', ( #203, #239, #3, #161 ) ) ;
#205 = ADVANCED_FACE ( 'NONE', ( #211 ), #244, .F. ) ;
#206 = DIRECTION ( 'NONE',  ( 1.000000000000000000, 0.000000000000000000, 0.000000000000000000 ) ) ;
#207 = CARTESIAN_POINT ( 'NONE',  ( -1.600000000000000089, 0.000000000000000000, 200.0000000000000000 ) ) ;
#208 = DIRECTION ( 'NONE',  ( 1.000000000000000000, 0.000000000000000000, -0.000000000000000000 ) ) ;
#209 = CARTESIAN_POINT ( 'NONE',  ( -3.000000000000000444, 0.000000000000000000, 3.000000000000000000 ) ) ;
#210 = CIRCLE ( 'NONE', #107, 1.600000000000000089 ) ;
#211 = FACE_OUTER_BOUND ( 'NONE', #65, .T. ) ;
#212 = UNCERTAINTY_MEASURE_WITH_UNIT (LENGTH_MEASURE( 1.000000000000000082E-05 ), #75, 'distance_accuracy_value', 'NONE');
#213 = PERSON_AND_ORGANIZATION ( #156, #8 ) ;
#214 = APPROVAL ( #246, 'NEURÈENÝ' ) ;
#215 = CARTESIAN_POINT ( 'NONE',  ( 0.000000000000000000, 0.000000000000000000, 3.000000000000000000 ) ) ;
#216 = CALENDAR_DATE ( 2023, 12, 2 ) ;
#217 = COORDINATED_UNIVERSAL_TIME_OFFSET ( 1, 0, .AHEAD. ) ;
#218 = CARTESIAN_POINT ( 'NONE',  ( 0.000000000000000000, 0.000000000000000000, 200.0000000000000000 ) ) ;
#219 = ORIENTED_EDGE ( 'NONE', *, *, #224, .F. ) ;
#220 = AXIS2_PLACEMENT_3D ( 'NONE', #153, #68, #53 ) ;
#221 = CALENDAR_DATE ( 2023, 12, 2 ) ;
#222 = LOCAL_TIME ( 13, 44, 27.00000000000000000, #32 ) ;
#223 = ORIENTED_EDGE ( 'NONE', *, *, #224, .T. ) ;
#224 = EDGE_CURVE ( 'NONE', #105, #62, #163, .T. ) ;
#225 = CARTESIAN_POINT ( 'NONE',  ( 0.000000000000000000, 0.000000000000000000, 200.0000000000000000 ) ) ;
#226 = CIRCLE ( 'NONE', #254, 3.000000000000000444 ) ;
#227 = CARTESIAN_POINT ( 'NONE',  ( 3.000000000000000444, 3.673940397442060361E-16, 3.000000000000000000 ) ) ;
#228 = CARTESIAN_POINT ( 'NONE',  ( -3.000000000000000444, 0.000000000000000000, 3.000000000000000000 ) ) ;
#229 = CARTESIAN_POINT ( 'NONE',  ( 0.000000000000000000, 0.000000000000000000, 200.0000000000000000 ) ) ;
#230 = AXIS2_PLACEMENT_3D ( 'NONE', #215, #58, #192 ) ;
#231 = DIRECTION ( 'NONE',  ( 1.000000000000000000, 0.000000000000000000, -0.000000000000000000 ) ) ;
#232 = APPROVAL_STATUS ( 'not_yet_approved' ) ;
#233 = CC_DESIGN_PERSON_AND_ORGANIZATION_ASSIGNMENT ( #80, #12, ( #119 ) ) ;
#234 = COORDINATED_UNIVERSAL_TIME_OFFSET ( 1, 0, .AHEAD. ) ;
#235 = APPLICATION_PROTOCOL_DEFINITION ( 'international standard', 'config_control_design', 1994, #184 ) ;
#236 = VERTEX_POINT ( 'NONE', #87 ) ;
#237 = VERTEX_POINT ( 'NONE', #56 ) ;
#238 = ORIENTED_EDGE ( 'NONE', *, *, #141, .T. ) ;
#239 = ORIENTED_EDGE ( 'NONE', *, *, #175, .T. ) ;
#240 = FACE_BOUND ( 'NONE', #83, .T. ) ;
#241 = CARTESIAN_POINT ( 'NONE',  ( 1.600000000000000089, 1.959434878635765230E-16, 200.0000000000000000 ) ) ;
#242 = DIRECTION ( 'NONE',  ( 1.000000000000000000, 0.000000000000000000, 0.000000000000000000 ) ) ;
#243 = LINE ( 'NONE', #228, #199 ) ;
#244 = PLANE ( 'NONE',  #130 ) ;
#245 = AXIS2_PLACEMENT_3D ( 'NONE', #218, #183, #40 ) ;
#246 = APPROVAL_STATUS ( 'not_yet_approved' ) ;
#247 = DATE_TIME_ROLE ( 'creation_date' ) ;
#248 = CALENDAR_DATE ( 2023, 12, 2 ) ;
#249 = APPROVAL_ROLE ( '' ) ;
#250 = PERSON_AND_ORGANIZATION ( #156, #8 ) ;
#251 = EDGE_LOOP ( 'NONE', ( #124, #219, #43, #24 ) ) ;
#252 = EDGE_CURVE ( 'NONE', #200, #160, #54, .T. ) ;
#253 = AXIS2_PLACEMENT_3D ( 'NONE', #225, #169, #166 ) ;
#254 = AXIS2_PLACEMENT_3D ( 'NONE', #149, #89, #242 ) ;
#255 = ORIENTED_EDGE ( 'NONE', *, *, #79, .F. ) ;
ENDSEC;
END-ISO-10303-21;
