ISO-10303-21;
HEADER;
FILE_DESCRIPTION (( 'STEP AP203' ),
    '1' );
FILE_NAME ('15a9.STEP',
    '2022-07-07T10:12:22',
    ( '' ),
    ( '' ),
    'SwSTEP 2.0',
    'SolidWorks 2019',
    '' );
FILE_SCHEMA (( 'CONFIG_CONTROL_DESIGN' ));
ENDSEC;

DATA;
#1 = EDGE_CURVE ( 'NONE', #214, #152, #107, .T. ) ;
#2 = APPROVAL_ROLE ( '' ) ;
#3 = CALENDAR_DATE ( 2022, 7, 7 ) ;
#4 = ORIENTED_EDGE ( 'NONE', *, *, #166, .T. ) ;
#5 = COORDINATED_UNIVERSAL_TIME_OFFSET ( 1, 0, .AHEAD. ) ;
#6 = CARTESIAN_POINT ( 'NONE',  ( 0.000000000000000000, 0.000000000000000000, 0.000000000000000000 ) ) ;
#7 = VERTEX_POINT ( 'NONE', #79 ) ;
#8 = EDGE_LOOP ( 'NONE', ( #56, #175, #290, #75 ) ) ;
#9 = CARTESIAN_POINT ( 'NONE',  ( 0.000000000000000000, 0.000000000000000000, 0.000000000000000000 ) ) ;
#10 = CARTESIAN_POINT ( 'NONE',  ( 0.000000000000000000, 0.000000000000000000, 1004.999999999999886 ) ) ;
#11 = EDGE_LOOP ( 'NONE', ( #296, #247 ) ) ;
#12 = CARTESIAN_POINT ( 'NONE',  ( -3.200000000000000622, 3.918869757271530953E-16, 5.199999999999982414 ) ) ;
#13 = AXIS2_PLACEMENT_3D ( 'NONE', #227, #187, #257 ) ;
#14 = EDGE_CURVE ( 'NONE', #124, #249, #78, .T. ) ;
#15 = DATE_AND_TIME ( #113, #304 ) ;
#16 = CC_DESIGN_APPROVAL ( #41, ( #268 ) ) ;
#17 = CARTESIAN_POINT ( 'NONE',  ( 3.000000000000000444, 3.673940397442060361E-16, 5.199999999999982414 ) ) ;
#18 = DIRECTION ( 'NONE',  ( 0.000000000000000000, 0.000000000000000000, 1.000000000000000000 ) ) ;
#19 = APPLICATION_PROTOCOL_DEFINITION ( 'international standard', 'config_control_design', 1994, #129 ) ;
#20 = DIRECTION ( 'NONE',  ( 0.000000000000000000, 0.000000000000000000, 1.000000000000000000 ) ) ;
#21 = CC_DESIGN_PERSON_AND_ORGANIZATION_ASSIGNMENT ( #122, #238, ( #211 ) ) ;
#22 = CIRCLE ( 'NONE', #50, 6.000000000000000888 ) ;
#23 = CARTESIAN_POINT ( 'NONE',  ( 0.000000000000000000, 0.000000000000000000, 5.000000000000000000 ) ) ;
#24 = CALENDAR_DATE ( 2022, 7, 7 ) ;
#25 = CIRCLE ( 'NONE', #38, 6.000000000000000888 ) ;
#26 = EDGE_CURVE ( 'NONE', #152, #214, #234, .T. ) ;
#27 = VERTEX_POINT ( 'NONE', #169 ) ;
#28 = DATE_TIME_ROLE ( 'classification_date' ) ;
#29 = EDGE_LOOP ( 'NONE', ( #286, #151, #289, #4 ) ) ;
#30 = CARTESIAN_POINT ( 'NONE',  ( -6.000000000000000888, 0.000000000000000000, 5.000000000000000000 ) ) ;
#31 = AXIS2_PLACEMENT_3D ( 'NONE', #172, #182, #279 ) ;
#32 = AXIS2_PLACEMENT_3D ( 'NONE', #68, #45, #132 ) ;
#33 = ORIENTED_EDGE ( 'NONE', *, *, #14, .T. ) ;
#34 = ORIENTED_EDGE ( 'NONE', *, *, #93, .F. ) ;
#35 = PERSON ( 'NEURÈENÝ', 'NEURÈENÝ', 'NEURÈENÝ', ('NEURÈENÝ'), ('NEURÈENÝ'), ('NEURÈENÝ') ) ;
#36 = CARTESIAN_POINT ( 'NONE',  ( 0.000000000000000000, 0.000000000000000000, 1004.999999999999886 ) ) ;
#37 = ADVANCED_FACE ( 'NONE', ( #288 ), #99, .F. ) ;
#38 = AXIS2_PLACEMENT_3D ( 'NONE', #156, #46, #254 ) ;
#39 = EDGE_CURVE ( 'NONE', #241, #214, #55, .T. ) ;
#40 = MECHANICAL_CONTEXT ( 'NONE', #129, 'mechanical' ) ;
#41 = APPROVAL ( #306, 'NEURÈENÝ' ) ;
#42 = LINE ( 'NONE', #105, #199 ) ;
#43 =( LENGTH_UNIT ( ) NAMED_UNIT ( * ) SI_UNIT ( .MILLI., .METRE. ) );
#44 =( GEOMETRIC_REPRESENTATION_CONTEXT ( 3 ) GLOBAL_UNCERTAINTY_ASSIGNED_CONTEXT ( ( #111 ) ) GLOBAL_UNIT_ASSIGNED_CONTEXT ( ( #43, #302, #162 ) ) REPRESENTATION_CONTEXT ( 'NONE', 'WORKASPACE' ) );
#45 = DIRECTION ( 'NONE',  ( 0.000000000000000000, 0.000000000000000000, 1.000000000000000000 ) ) ;
#46 = DIRECTION ( 'NONE',  ( 0.000000000000000000, 0.000000000000000000, 1.000000000000000000 ) ) ;
#47 = PLANE ( 'NONE',  #13 ) ;
#48 = PRODUCT_DEFINITION ( 'NEZNÁMÝ', '', #268, #299 ) ;
#49 = DIRECTION ( 'NONE',  ( -1.000000000000000000, 0.000000000000000000, 0.000000000000000000 ) ) ;
#50 = AXIS2_PLACEMENT_3D ( 'NONE', #206, #276, #115 ) ;
#51 = APPROVAL_STATUS ( 'not_yet_approved' ) ;
#52 = CIRCLE ( 'NONE', #283, 3.000000000000000444 ) ;
#53 = EDGE_LOOP ( 'NONE', ( #171, #266, #201, #219 ) ) ;
#54 = CC_DESIGN_PERSON_AND_ORGANIZATION_ASSIGNMENT ( #188, #141, ( #268 ) ) ;
#55 = LINE ( 'NONE', #30, #142 ) ;
#56 = ORIENTED_EDGE ( 'NONE', *, *, #205, .F. ) ;
#57 = AXIS2_PLACEMENT_3D ( 'NONE', #12, #294, #271 ) ;
#58 = CIRCLE ( 'NONE', #32, 3.000000000000000444 ) ;
#59 = MANIFOLD_SOLID_BREP ( 'Zaoblit1', #239 ) ;
#60 = ORIENTED_EDGE ( 'NONE', *, *, #93, .T. ) ;
#61 = ORIENTED_EDGE ( 'NONE', *, *, #259, .T. ) ;
#62 = CC_DESIGN_PERSON_AND_ORGANIZATION_ASSIGNMENT ( #125, #261, ( #268 ) ) ;
#63 = CARTESIAN_POINT ( 'NONE',  ( -3.200000000000000622, 3.918869757271530953E-16, 4.999999999999991118 ) ) ;
#64 = ORIENTED_EDGE ( 'NONE', *, *, #164, .T. ) ;
#65 = AXIS2_PLACEMENT_3D ( 'NONE', #223, #18, #231 ) ;
#66 = CARTESIAN_POINT ( 'NONE',  ( 0.000000000000000000, 0.000000000000000000, 5.000000000000000000 ) ) ;
#67 = PERSON_AND_ORGANIZATION ( #35, #94 ) ;
#68 = CARTESIAN_POINT ( 'NONE',  ( 0.000000000000000000, 0.000000000000000000, 5.199999999999982414 ) ) ;
#69 = COORDINATED_UNIVERSAL_TIME_OFFSET ( 1, 0, .AHEAD. ) ;
#70 = CARTESIAN_POINT ( 'NONE',  ( -6.000000000000000888, 0.000000000000000000, 0.000000000000000000 ) ) ;
#71 = ADVANCED_FACE ( 'NONE', ( #127 ), #102, .F. ) ;
#72 = FACE_BOUND ( 'NONE', #11, .T. ) ;
#73 = APPROVAL_PERSON_ORGANIZATION ( #140, #123, #2 ) ;
#74 = DATE_AND_TIME ( #3, #287 ) ;
#75 = ORIENTED_EDGE ( 'NONE', *, *, #39, .F. ) ;
#76 = AXIS2_PLACEMENT_3D ( 'NONE', #117, #20, #135 ) ;
#77 = EDGE_CURVE ( 'NONE', #131, #218, #84, .T. ) ;
#78 = LINE ( 'NONE', #145, #277 ) ;
#79 = CARTESIAN_POINT ( 'NONE',  ( -3.000000000000000444, 0.000000000000000000, 1004.999999999999886 ) ) ;
#80 = EDGE_LOOP ( 'NONE', ( #173, #33, #265, #267 ) ) ;
#81 = CC_DESIGN_APPROVAL ( #123, ( #211 ) ) ;
#82 = CYLINDRICAL_SURFACE ( 'NONE', #31, 3.000000000000000444 ) ;
#83 = FACE_OUTER_BOUND ( 'NONE', #8, .T. ) ;
#84 = CIRCLE ( 'NONE', #112, 3.200000000000000622 ) ;
#85 = CIRCLE ( 'NONE', #114, 3.200000000000000622 ) ;
#86 = DIRECTION ( 'NONE',  ( 0.000000000000000000, -1.000000000000000000, 0.000000000000000000 ) ) ;
#87 = DIRECTION ( 'NONE',  ( -0.000000000000000000, -0.000000000000000000, -1.000000000000000000 ) ) ;
#88 = PERSON_AND_ORGANIZATION ( #35, #94 ) ;
#89 = APPROVAL ( #275, 'NEURÈENÝ' ) ;
#90 = DIRECTION ( 'NONE',  ( -0.000000000000000000, -0.000000000000000000, -1.000000000000000000 ) ) ;
#91 = APPROVAL_ROLE ( '' ) ;
#92 = APPLICATION_PROTOCOL_DEFINITION ( 'international standard', 'config_control_design', 1994, #120 ) ;
#93 = EDGE_CURVE ( 'NONE', #148, #131, #189, .T. ) ;
#94 = ORGANIZATION ( 'NEURÈENÝ', 'NEURÈENÝ', '' ) ;
#95 = ADVANCED_FACE ( 'NONE', ( #150 ), #274, .T. ) ;
#96 = CARTESIAN_POINT ( 'NONE',  ( 0.000000000000000000, 0.000000000000000000, 0.000000000000000000 ) ) ;
#97 = CC_DESIGN_PERSON_AND_ORGANIZATION_ASSIGNMENT ( #67, #157, ( #48 ) ) ;
#98 = ADVANCED_FACE ( 'NONE', ( #83 ), #197, .T. ) ;
#99 = TOROIDAL_SURFACE ( 'NONE', #177, 3.200000000000000622, 0.2000000000000000111 ) ;
#100 = DIRECTION ( 'NONE',  ( 0.000000000000000000, 0.000000000000000000, 1.000000000000000000 ) ) ;
#101 = AXIS2_PLACEMENT_3D ( 'NONE', #66, #109, #174 ) ;
#102 = PLANE ( 'NONE',  #246 ) ;
#103 = ORIENTED_EDGE ( 'NONE', *, *, #259, .F. ) ;
#104 = CARTESIAN_POINT ( 'NONE',  ( 0.000000000000000000, 0.000000000000000000, 5.000000000000000000 ) ) ;
#105 = CARTESIAN_POINT ( 'NONE',  ( -3.000000000000000444, 0.000000000000000000, 1004.999999999999886 ) ) ;
#106 = ORIENTED_EDGE ( 'NONE', *, *, #1, .F. ) ;
#107 = CIRCLE ( 'NONE', #217, 6.000000000000000888 ) ;
#108 = CIRCLE ( 'NONE', #240, 3.000000000000000444 ) ;
#109 = DIRECTION ( 'NONE',  ( -0.000000000000000000, -0.000000000000000000, -1.000000000000000000 ) ) ;
#110 = CC_DESIGN_PERSON_AND_ORGANIZATION_ASSIGNMENT ( #208, #116, ( #155 ) ) ;
#111 = UNCERTAINTY_MEASURE_WITH_UNIT (LENGTH_MEASURE( 1.000000000000000082E-05 ), #43, 'distance_accuracy_value', 'NONE');
#112 = AXIS2_PLACEMENT_3D ( 'NONE', #104, #196, #291 ) ;
#113 = CALENDAR_DATE ( 2022, 7, 7 ) ;
#114 = AXIS2_PLACEMENT_3D ( 'NONE', #210, #292, #207 ) ;
#115 = DIRECTION ( 'NONE',  ( 1.000000000000000000, 0.000000000000000000, 0.000000000000000000 ) ) ;
#116 = PERSON_AND_ORGANIZATION_ROLE ( 'design_owner' ) ;
#117 = CARTESIAN_POINT ( 'NONE',  ( 0.000000000000000000, 0.000000000000000000, 5.199999999999982414 ) ) ;
#118 = FACE_OUTER_BOUND ( 'NONE', #222, .T. ) ;
#119 = PERSON_AND_ORGANIZATION ( #35, #94 ) ;
#120 = APPLICATION_CONTEXT ( 'configuration controlled 3d designs of mechanical parts and assemblies' ) ;
#121 = FACE_OUTER_BOUND ( 'NONE', #195, .T. ) ;
#122 = PERSON_AND_ORGANIZATION ( #35, #94 ) ;
#123 = APPROVAL ( #51, 'NEURÈENÝ' ) ;
#124 = VERTEX_POINT ( 'NONE', #180 ) ;
#125 = PERSON_AND_ORGANIZATION ( #35, #94 ) ;
#126 = CARTESIAN_POINT ( 'NONE',  ( 0.000000000000000000, 0.000000000000000000, 5.199999999999982414 ) ) ;
#127 = FACE_OUTER_BOUND ( 'NONE', #194, .T. ) ;
#128 = AXIS2_PLACEMENT_3D ( 'NONE', #23, #235, #49 ) ;
#129 = APPLICATION_CONTEXT ( 'configuration controlled 3d designs of mechanical parts and assemblies' ) ;
#130 = DIRECTION ( 'NONE',  ( 1.000000000000000000, 0.000000000000000000, 0.000000000000000000 ) ) ;
#131 = VERTEX_POINT ( 'NONE', #63 ) ;
#132 = DIRECTION ( 'NONE',  ( 1.000000000000000000, 0.000000000000000000, 0.000000000000000000 ) ) ;
#133 = CC_DESIGN_APPROVAL ( #89, ( #48 ) ) ;
#134 = DIRECTION ( 'NONE',  ( -0.000000000000000000, -0.000000000000000000, -1.000000000000000000 ) ) ;
#135 = DIRECTION ( 'NONE',  ( 1.000000000000000000, 0.000000000000000000, 0.000000000000000000 ) ) ;
#136 = DATE_AND_TIME ( #255, #203 ) ;
#137 = CARTESIAN_POINT ( 'NONE',  ( 0.000000000000000000, 0.000000000000000000, 1004.999999999999886 ) ) ;
#138 = LINE ( 'NONE', #260, #298 ) ;
#139 = CARTESIAN_POINT ( 'NONE',  ( 0.000000000000000000, 0.000000000000000000, 0.000000000000000000 ) ) ;
#140 = PERSON_AND_ORGANIZATION ( #35, #94 ) ;
#141 = PERSON_AND_ORGANIZATION_ROLE ( 'design_supplier' ) ;
#142 = VECTOR ( 'NONE', #270, 1000.000000000000000 ) ;
#143 = CIRCLE ( 'NONE', #262, 0.1999999999999996503 ) ;
#144 = DATE_AND_TIME ( #242, #237 ) ;
#145 = CARTESIAN_POINT ( 'NONE',  ( 3.000000000000000444, 3.673940397442060361E-16, 1004.999999999999886 ) ) ;
#146 = APPROVAL_PERSON_ORGANIZATION ( #119, #41, #91 ) ;
#147 = ORIENTED_EDGE ( 'NONE', *, *, #77, .F. ) ;
#148 = VERTEX_POINT ( 'NONE', #251 ) ;
#149 = ORIENTED_EDGE ( 'NONE', *, *, #26, .F. ) ;
#150 = FACE_OUTER_BOUND ( 'NONE', #29, .T. ) ;
#151 = ORIENTED_EDGE ( 'NONE', *, *, #233, .F. ) ;
#152 = VERTEX_POINT ( 'NONE', #300 ) ;
#153 = CC_DESIGN_SECURITY_CLASSIFICATION ( #211, ( #268 ) ) ;
#154 = EDGE_CURVE ( 'NONE', #241, #27, #22, .T. ) ;
#155 = PRODUCT ( '15a9', '15a9', '', ( #40 ) ) ;
#156 = CARTESIAN_POINT ( 'NONE',  ( 0.000000000000000000, 0.000000000000000000, 5.000000000000000000 ) ) ;
#157 = PERSON_AND_ORGANIZATION_ROLE ( 'creator' ) ;
#158 = CARTESIAN_POINT ( 'NONE',  ( 3.200000000000000622, 0.000000000000000000, 4.999999999999991118 ) ) ;
#159 = ADVANCED_BREP_SHAPE_REPRESENTATION ( '15a9', ( #59, #184 ), #44 ) ;
#160 = DATE_TIME_ROLE ( 'creation_date' ) ;
#161 = DIRECTION ( 'NONE',  ( 1.000000000000000000, 0.000000000000000000, 0.000000000000000000 ) ) ;
#162 =( NAMED_UNIT ( * ) SI_UNIT ( $, .STERADIAN. ) SOLID_ANGLE_UNIT ( ) );
#163 = DIRECTION ( 'NONE',  ( 1.000000000000000000, 0.000000000000000000, -0.000000000000000000 ) ) ;
#164 = EDGE_CURVE ( 'NONE', #124, #7, #52, .T. ) ;
#165 = APPROVAL_PERSON_ORGANIZATION ( #88, #89, #224 ) ;
#166 = EDGE_CURVE ( 'NONE', #148, #249, #58, .T. ) ;
#167 = CIRCLE ( 'NONE', #65, 3.000000000000000444 ) ;
#168 = DIRECTION ( 'NONE',  ( -0.000000000000000000, -0.000000000000000000, -1.000000000000000000 ) ) ;
#169 = CARTESIAN_POINT ( 'NONE',  ( 6.000000000000000888, 7.347880794884120722E-16, 5.000000000000000000 ) ) ;
#170 = DIRECTION ( 'NONE',  ( 0.000000000000000000, 0.000000000000000000, 1.000000000000000000 ) ) ;
#171 = ORIENTED_EDGE ( 'NONE', *, *, #256, .F. ) ;
#172 = CARTESIAN_POINT ( 'NONE',  ( 0.000000000000000000, 0.000000000000000000, 1004.999999999999886 ) ) ;
#173 = ORIENTED_EDGE ( 'NONE', *, *, #164, .F. ) ;
#174 = DIRECTION ( 'NONE',  ( -1.000000000000000000, 0.000000000000000000, 0.000000000000000000 ) ) ;
#175 = ORIENTED_EDGE ( 'NONE', *, *, #256, .T. ) ;
#176 = EDGE_CURVE ( 'NONE', #249, #148, #167, .T. ) ;
#177 = AXIS2_PLACEMENT_3D ( 'NONE', #126, #245, #216 ) ;
#178 = AXIS2_PLACEMENT_3D ( 'NONE', #10, #87, #228 ) ;
#179 = PLANE ( 'NONE',  #253 ) ;
#180 = CARTESIAN_POINT ( 'NONE',  ( 3.000000000000000444, 3.673940397442060361E-16, 1004.999999999999886 ) ) ;
#181 = CYLINDRICAL_SURFACE ( 'NONE', #128, 6.000000000000000888 ) ;
#182 = DIRECTION ( 'NONE',  ( -0.000000000000000000, -0.000000000000000000, -1.000000000000000000 ) ) ;
#183 = COORDINATED_UNIVERSAL_TIME_OFFSET ( 1, 0, .AHEAD. ) ;
#184 = AXIS2_PLACEMENT_3D ( 'NONE', #139, #232, #212 ) ;
#185 = DIRECTION ( 'NONE',  ( 0.000000000000000000, 0.000000000000000000, -1.000000000000000000 ) ) ;
#186 = EDGE_CURVE ( 'NONE', #218, #131, #85, .T. ) ;
#187 = DIRECTION ( 'NONE',  ( 0.000000000000000000, 0.000000000000000000, 1.000000000000000000 ) ) ;
#188 = PERSON_AND_ORGANIZATION ( #35, #94 ) ;
#189 = CIRCLE ( 'NONE', #57, 0.2000000000000000944 ) ;
#190 = APPROVAL_DATE_TIME ( #144, #41 ) ;
#191 = COORDINATED_UNIVERSAL_TIME_OFFSET ( 1, 0, .AHEAD. ) ;
#192 = DIRECTION ( 'NONE',  ( 1.000000000000000000, 0.000000000000000000, 0.000000000000000000 ) ) ;
#193 = ORIENTED_EDGE ( 'NONE', *, *, #205, .T. ) ;
#194 = EDGE_LOOP ( 'NONE', ( #106, #149 ) ) ;
#195 = EDGE_LOOP ( 'NONE', ( #252, #193 ) ) ;
#196 = DIRECTION ( 'NONE',  ( -0.000000000000000000, -0.000000000000000000, -1.000000000000000000 ) ) ;
#197 = CYLINDRICAL_SURFACE ( 'NONE', #101, 6.000000000000000888 ) ;
#198 = EDGE_LOOP ( 'NONE', ( #34, #293, #61, #147 ) ) ;
#199 = VECTOR ( 'NONE', #90, 1000.000000000000000 ) ;
#200 = DIRECTION ( 'NONE',  ( 0.000000000000000000, 0.000000000000000000, 1.000000000000000000 ) ) ;
#201 = ORIENTED_EDGE ( 'NONE', *, *, #39, .T. ) ;
#202 = PRODUCT_DEFINITION_SHAPE ( 'NONE', 'NONE',  #48 ) ;
#203 = LOCAL_TIME ( 12, 12, 22.00000000000000000, #69 ) ;
#204 = APPROVAL_DATE_TIME ( #15, #89 ) ;
#205 = EDGE_CURVE ( 'NONE', #27, #241, #25, .T. ) ;
#206 = CARTESIAN_POINT ( 'NONE',  ( 0.000000000000000000, 0.000000000000000000, 5.000000000000000000 ) ) ;
#207 = DIRECTION ( 'NONE',  ( 1.000000000000000000, 0.000000000000000000, 0.000000000000000000 ) ) ;
#208 = PERSON_AND_ORGANIZATION ( #35, #94 ) ;
#209 = PRODUCT_RELATED_PRODUCT_CATEGORY ( 'detail', '', ( #155 ) ) ;
#210 = CARTESIAN_POINT ( 'NONE',  ( 0.000000000000000000, 0.000000000000000000, 5.000000000000000000 ) ) ;
#211 = SECURITY_CLASSIFICATION ( '', '', #284 ) ;
#212 = DIRECTION ( 'NONE',  ( 1.000000000000000000, 0.000000000000000000, 0.000000000000000000 ) ) ;
#213 = DATE_AND_TIME ( #24, #225 ) ;
#214 = VERTEX_POINT ( 'NONE', #70 ) ;
#215 = APPROVAL_DATE_TIME ( #213, #123 ) ;
#216 = DIRECTION ( 'NONE',  ( 1.000000000000000000, 0.000000000000000000, 0.000000000000000000 ) ) ;
#217 = AXIS2_PLACEMENT_3D ( 'NONE', #96, #244, #192 ) ;
#218 = VERTEX_POINT ( 'NONE', #158 ) ;
#219 = ORIENTED_EDGE ( 'NONE', *, *, #1, .T. ) ;
#220 = DIRECTION ( 'NONE',  ( 1.000000000000000000, 0.000000000000000000, -0.000000000000000000 ) ) ;
#221 = DIRECTION ( 'NONE',  ( 0.000000000000000000, 0.000000000000000000, 1.000000000000000000 ) ) ;
#222 = EDGE_LOOP ( 'NONE', ( #273, #60, #272, #103 ) ) ;
#223 = CARTESIAN_POINT ( 'NONE',  ( 0.000000000000000000, 0.000000000000000000, 5.199999999999982414 ) ) ;
#224 = APPROVAL_ROLE ( '' ) ;
#225 = LOCAL_TIME ( 12, 12, 22.00000000000000000, #5 ) ;
#226 = CARTESIAN_POINT ( 'NONE',  ( -6.000000000000000888, 0.000000000000000000, 5.000000000000000000 ) ) ;
#227 = CARTESIAN_POINT ( 'NONE',  ( 0.000000000000000000, 0.000000000000000000, 1004.999999999999886 ) ) ;
#228 = DIRECTION ( 'NONE',  ( -1.000000000000000000, 0.000000000000000000, 0.000000000000000000 ) ) ;
#229 = CARTESIAN_POINT ( 'NONE',  ( 0.000000000000000000, 0.000000000000000000, 5.000000000000000000 ) ) ;
#230 = EDGE_CURVE ( 'NONE', #7, #148, #42, .T. ) ;
#231 = DIRECTION ( 'NONE',  ( 1.000000000000000000, 0.000000000000000000, 0.000000000000000000 ) ) ;
#232 = DIRECTION ( 'NONE',  ( 0.000000000000000000, 0.000000000000000000, 1.000000000000000000 ) ) ;
#233 = EDGE_CURVE ( 'NONE', #7, #124, #108, .T. ) ;
#234 = CIRCLE ( 'NONE', #303, 6.000000000000000888 ) ;
#235 = DIRECTION ( 'NONE',  ( -0.000000000000000000, -0.000000000000000000, -1.000000000000000000 ) ) ;
#236 = ADVANCED_FACE ( 'NONE', ( #118 ), #278, .F. ) ;
#237 = LOCAL_TIME ( 12, 12, 22.00000000000000000, #191 ) ;
#238 = PERSON_AND_ORGANIZATION_ROLE ( 'classification_officer' ) ;
#239 = CLOSED_SHELL ( 'NONE', ( #236, #250, #98, #297, #305, #71, #95, #264, #37 ) ) ;
#240 = AXIS2_PLACEMENT_3D ( 'NONE', #137, #221, #161 ) ;
#241 = VERTEX_POINT ( 'NONE', #226 ) ;
#242 = CALENDAR_DATE ( 2022, 7, 7 ) ;
#243 = CC_DESIGN_DATE_AND_TIME_ASSIGNMENT ( #74, #28, ( #211 ) ) ;
#244 = DIRECTION ( 'NONE',  ( 0.000000000000000000, 0.000000000000000000, 1.000000000000000000 ) ) ;
#245 = DIRECTION ( 'NONE',  ( 0.000000000000000000, 0.000000000000000000, 1.000000000000000000 ) ) ;
#246 = AXIS2_PLACEMENT_3D ( 'NONE', #6, #170, #220 ) ;
#247 = ORIENTED_EDGE ( 'NONE', *, *, #77, .T. ) ;
#248 = ORIENTED_EDGE ( 'NONE', *, *, #233, .T. ) ;
#249 = VERTEX_POINT ( 'NONE', #17 ) ;
#250 = ADVANCED_FACE ( 'NONE', ( #301 ), #82, .T. ) ;
#251 = CARTESIAN_POINT ( 'NONE',  ( -3.000000000000000444, 0.000000000000000000, 5.199999999999982414 ) ) ;
#252 = ORIENTED_EDGE ( 'NONE', *, *, #154, .T. ) ;
#253 = AXIS2_PLACEMENT_3D ( 'NONE', #229, #280, #163 ) ;
#254 = DIRECTION ( 'NONE',  ( 1.000000000000000000, 0.000000000000000000, 0.000000000000000000 ) ) ;
#255 = CALENDAR_DATE ( 2022, 7, 7 ) ;
#256 = EDGE_CURVE ( 'NONE', #27, #152, #138, .T. ) ;
#257 = DIRECTION ( 'NONE',  ( 1.000000000000000000, 0.000000000000000000, -0.000000000000000000 ) ) ;
#258 = DIRECTION ( 'NONE',  ( 1.000000000000000000, 0.000000000000000000, 0.000000000000000000 ) ) ;
#259 = EDGE_CURVE ( 'NONE', #249, #218, #143, .T. ) ;
#260 = CARTESIAN_POINT ( 'NONE',  ( 6.000000000000000888, 7.347880794884120722E-16, 5.000000000000000000 ) ) ;
#261 = PERSON_AND_ORGANIZATION_ROLE ( 'creator' ) ;
#262 = AXIS2_PLACEMENT_3D ( 'NONE', #282, #86, #185 ) ;
#263 = SHAPE_DEFINITION_REPRESENTATION ( #202, #159 ) ;
#264 = ADVANCED_FACE ( 'NONE', ( #281 ), #47, .T. ) ;
#265 = ORIENTED_EDGE ( 'NONE', *, *, #176, .T. ) ;
#266 = ORIENTED_EDGE ( 'NONE', *, *, #154, .F. ) ;
#267 = ORIENTED_EDGE ( 'NONE', *, *, #230, .F. ) ;
#268 = PRODUCT_DEFINITION_FORMATION_WITH_SPECIFIED_SOURCE ( 'LIBOVOLNÝ', '', #155, .NOT_KNOWN. ) ;
#269 = EDGE_LOOP ( 'NONE', ( #248, #64 ) ) ;
#270 = DIRECTION ( 'NONE',  ( -0.000000000000000000, -0.000000000000000000, -1.000000000000000000 ) ) ;
#271 = DIRECTION ( 'NONE',  ( -1.000000000000000000, 1.224646799147353207E-16, 0.000000000000000000 ) ) ;
#272 = ORIENTED_EDGE ( 'NONE', *, *, #186, .F. ) ;
#273 = ORIENTED_EDGE ( 'NONE', *, *, #166, .F. ) ;
#274 = CYLINDRICAL_SURFACE ( 'NONE', #178, 3.000000000000000444 ) ;
#275 = APPROVAL_STATUS ( 'not_yet_approved' ) ;
#276 = DIRECTION ( 'NONE',  ( 0.000000000000000000, 0.000000000000000000, 1.000000000000000000 ) ) ;
#277 = VECTOR ( 'NONE', #168, 1000.000000000000000 ) ;
#278 = TOROIDAL_SURFACE ( 'NONE', #76, 3.200000000000000622, 0.2000000000000000111 ) ;
#279 = DIRECTION ( 'NONE',  ( -1.000000000000000000, 0.000000000000000000, 0.000000000000000000 ) ) ;
#280 = DIRECTION ( 'NONE',  ( 0.000000000000000000, 0.000000000000000000, 1.000000000000000000 ) ) ;
#281 = FACE_OUTER_BOUND ( 'NONE', #269, .T. ) ;
#282 = CARTESIAN_POINT ( 'NONE',  ( 3.200000000000000622, 0.000000000000000000, 5.199999999999982414 ) ) ;
#283 = AXIS2_PLACEMENT_3D ( 'NONE', #36, #200, #258 ) ;
#284 = SECURITY_CLASSIFICATION_LEVEL ( 'unclassified' ) ;
#285 = COORDINATED_UNIVERSAL_TIME_OFFSET ( 1, 0, .AHEAD. ) ;
#286 = ORIENTED_EDGE ( 'NONE', *, *, #14, .F. ) ;
#287 = LOCAL_TIME ( 12, 12, 22.00000000000000000, #285 ) ;
#288 = FACE_OUTER_BOUND ( 'NONE', #198, .T. ) ;
#289 = ORIENTED_EDGE ( 'NONE', *, *, #230, .T. ) ;
#290 = ORIENTED_EDGE ( 'NONE', *, *, #26, .T. ) ;
#291 = DIRECTION ( 'NONE',  ( 1.000000000000000000, 0.000000000000000000, 0.000000000000000000 ) ) ;
#292 = DIRECTION ( 'NONE',  ( -0.000000000000000000, -0.000000000000000000, -1.000000000000000000 ) ) ;
#293 = ORIENTED_EDGE ( 'NONE', *, *, #176, .F. ) ;
#294 = DIRECTION ( 'NONE',  ( 1.224646799147353207E-16, 1.000000000000000000, -0.000000000000000000 ) ) ;
#295 = CC_DESIGN_DATE_AND_TIME_ASSIGNMENT ( #136, #160, ( #48 ) ) ;
#296 = ORIENTED_EDGE ( 'NONE', *, *, #186, .T. ) ;
#297 = ADVANCED_FACE ( 'NONE', ( #307 ), #181, .T. ) ;
#298 = VECTOR ( 'NONE', #134, 1000.000000000000000 ) ;
#299 = DESIGN_CONTEXT ( 'detailed design', #120, 'design' ) ;
#300 = CARTESIAN_POINT ( 'NONE',  ( 6.000000000000000888, 7.347880794884120722E-16, 0.000000000000000000 ) ) ;
#301 = FACE_OUTER_BOUND ( 'NONE', #80, .T. ) ;
#302 =( NAMED_UNIT ( * ) PLANE_ANGLE_UNIT ( ) SI_UNIT ( $, .RADIAN. ) );
#303 = AXIS2_PLACEMENT_3D ( 'NONE', #9, #100, #130 ) ;
#304 = LOCAL_TIME ( 12, 12, 22.00000000000000000, #183 ) ;
#305 = ADVANCED_FACE ( 'NONE', ( #72, #121 ), #179, .T. ) ;
#306 = APPROVAL_STATUS ( 'not_yet_approved' ) ;
#307 = FACE_OUTER_BOUND ( 'NONE', #53, .T. ) ;
ENDSEC;
END-ISO-10303-21;
