ISO-10303-21;
HEADER;
FILE_DESCRIPTION (( 'STEP AP203' ),
    '1' );
FILE_NAME ('5ebe.STEP',
    '2022-07-07T10:12:08',
    ( '' ),
    ( '' ),
    'SwSTEP 2.0',
    'SolidWorks 2019',
    '' );
FILE_SCHEMA (( 'CONFIG_CONTROL_DESIGN' ));
ENDSEC;

DATA;
#1 = AXIS2_PLACEMENT_3D ( 'NONE', #57, #220, #176 ) ;
#2 = CC_DESIGN_PERSON_AND_ORGANIZATION_ASSIGNMENT ( #120, #300, ( #51 ) ) ;
#3 =( NAMED_UNIT ( * ) PLANE_ANGLE_UNIT ( ) SI_UNIT ( $, .RADIAN. ) );
#4 = ORIENTED_EDGE ( 'NONE', *, *, #110, .F. ) ;
#5 = APPROVAL ( #123, 'NEURÈENÝ' ) ;
#6 = ORIENTED_EDGE ( 'NONE', *, *, #228, .F. ) ;
#7 = LOCAL_TIME ( 12, 12, 8.000000000000000000, #68 ) ;
#8 = DIRECTION ( 'NONE',  ( -0.000000000000000000, -0.000000000000000000, -1.000000000000000000 ) ) ;
#9 = DIRECTION ( 'NONE',  ( 1.000000000000000000, 0.000000000000000000, 0.000000000000000000 ) ) ;
#10 = ORIENTED_EDGE ( 'NONE', *, *, #121, .F. ) ;
#11 = CARTESIAN_POINT ( 'NONE',  ( 0.000000000000000000, 0.000000000000000000, 5.000000000000000000 ) ) ;
#12 = AXIS2_PLACEMENT_3D ( 'NONE', #84, #297, #35 ) ;
#13 = CARTESIAN_POINT ( 'NONE',  ( 0.000000000000000000, 0.000000000000000000, 105.0000000000000142 ) ) ;
#14 = APPROVAL_STATUS ( 'not_yet_approved' ) ;
#15 = CC_DESIGN_PERSON_AND_ORGANIZATION_ASSIGNMENT ( #32, #59, ( #91 ) ) ;
#16 = DATE_AND_TIME ( #253, #7 ) ;
#17 = CIRCLE ( 'NONE', #1, 6.000000000000000888 ) ;
#18 = PLANE ( 'NONE',  #280 ) ;
#19 = ORIENTED_EDGE ( 'NONE', *, *, #236, .F. ) ;
#20 = DIRECTION ( 'NONE',  ( 0.000000000000000000, 0.000000000000000000, 1.000000000000000000 ) ) ;
#21 = CARTESIAN_POINT ( 'NONE',  ( -3.100000000000000089, 0.000000000000000000, 105.0000000000000142 ) ) ;
#22 = CC_DESIGN_PERSON_AND_ORGANIZATION_ASSIGNMENT ( #61, #239, ( #88 ) ) ;
#23 = CALENDAR_DATE ( 2022, 7, 7 ) ;
#24 = AXIS2_PLACEMENT_3D ( 'NONE', #290, #8, #206 ) ;
#25 = LOCAL_TIME ( 12, 12, 8.000000000000000000, #272 ) ;
#26 = CARTESIAN_POINT ( 'NONE',  ( 3.100000000000000089, 3.796405077356794918E-16, 105.0000000000000142 ) ) ;
#27 = ADVANCED_FACE ( 'NONE', ( #282 ), #124, .F. ) ;
#28 = ORIENTED_EDGE ( 'NONE', *, *, #168, .F. ) ;
#29 = DIRECTION ( 'NONE',  ( 1.000000000000000000, 0.000000000000000000, 0.000000000000000000 ) ) ;
#30 = VERTEX_POINT ( 'NONE', #210 ) ;
#31 = CARTESIAN_POINT ( 'NONE',  ( 3.299999999999999822, 0.000000000000000000, 5.199999999999996625 ) ) ;
#32 = PERSON_AND_ORGANIZATION ( #218, #94 ) ;
#33 = FACE_OUTER_BOUND ( 'NONE', #264, .T. ) ;
#34 = DIRECTION ( 'NONE',  ( 1.000000000000000000, 0.000000000000000000, 0.000000000000000000 ) ) ;
#35 = DIRECTION ( 'NONE',  ( 1.000000000000000000, 0.000000000000000000, 0.000000000000000000 ) ) ;
#36 = ADVANCED_BREP_SHAPE_REPRESENTATION ( '5ebe', ( #188, #157 ), #271 ) ;
#37 = AXIS2_PLACEMENT_3D ( 'NONE', #87, #275, #131 ) ;
#38 = ADVANCED_FACE ( 'NONE', ( #231 ), #67, .T. ) ;
#39 = VERTEX_POINT ( 'NONE', #21 ) ;
#40 = AXIS2_PLACEMENT_3D ( 'NONE', #185, #155, #80 ) ;
#41 = AXIS2_PLACEMENT_3D ( 'NONE', #170, #274, #177 ) ;
#42 = CALENDAR_DATE ( 2022, 7, 7 ) ;
#43 = FACE_OUTER_BOUND ( 'NONE', #303, .T. ) ;
#44 = EDGE_LOOP ( 'NONE', ( #10, #240, #306, #54 ) ) ;
#45 = VERTEX_POINT ( 'NONE', #102 ) ;
#46 = AXIS2_PLACEMENT_3D ( 'NONE', #146, #100, #233 ) ;
#47 = ADVANCED_FACE ( 'NONE', ( #211, #43 ), #18, .T. ) ;
#48 = DATE_TIME_ROLE ( 'creation_date' ) ;
#49 =( LENGTH_UNIT ( ) NAMED_UNIT ( * ) SI_UNIT ( .MILLI., .METRE. ) );
#50 = CIRCLE ( 'NONE', #301, 6.000000000000000888 ) ;
#51 = PRODUCT_DEFINITION_FORMATION_WITH_SPECIFIED_SOURCE ( 'LIBOVOLNÝ', '', #88, .NOT_KNOWN. ) ;
#52 = CC_DESIGN_DATE_AND_TIME_ASSIGNMENT ( #262, #48, ( #91 ) ) ;
#53 = CARTESIAN_POINT ( 'NONE',  ( -6.000000000000000888, 0.000000000000000000, 5.000000000000000000 ) ) ;
#54 = ORIENTED_EDGE ( 'NONE', *, *, #208, .T. ) ;
#55 = LINE ( 'NONE', #156, #252 ) ;
#56 = MECHANICAL_CONTEXT ( 'NONE', #137, 'mechanical' ) ;
#57 = CARTESIAN_POINT ( 'NONE',  ( 0.000000000000000000, 0.000000000000000000, 5.000000000000000000 ) ) ;
#58 = ADVANCED_FACE ( 'NONE', ( #97 ), #190, .T. ) ;
#59 = PERSON_AND_ORGANIZATION_ROLE ( 'creator' ) ;
#60 = CYLINDRICAL_SURFACE ( 'NONE', #116, 6.000000000000000888 ) ;
#61 = PERSON_AND_ORGANIZATION ( #218, #94 ) ;
#62 = COORDINATED_UNIVERSAL_TIME_OFFSET ( 1, 0, .AHEAD. ) ;
#63 = CC_DESIGN_DATE_AND_TIME_ASSIGNMENT ( #158, #143, ( #261 ) ) ;
#64 = AXIS2_PLACEMENT_3D ( 'NONE', #150, #241, #29 ) ;
#65 = SHAPE_DEFINITION_REPRESENTATION ( #249, #36 ) ;
#66 = APPROVAL_ROLE ( '' ) ;
#67 = PLANE ( 'NONE',  #179 ) ;
#68 = COORDINATED_UNIVERSAL_TIME_OFFSET ( 1, 0, .AHEAD. ) ;
#69 = ORIENTED_EDGE ( 'NONE', *, *, #236, .T. ) ;
#70 = AXIS2_PLACEMENT_3D ( 'NONE', #248, #265, #246 ) ;
#71 = APPROVAL_PERSON_ORGANIZATION ( #118, #5, #66 ) ;
#72 = ORIENTED_EDGE ( 'NONE', *, *, #139, .T. ) ;
#73 = ORIENTED_EDGE ( 'NONE', *, *, #196, .T. ) ;
#74 = DIRECTION ( 'NONE',  ( -1.000000000000000000, 0.000000000000000000, 0.000000000000000000 ) ) ;
#75 = ADVANCED_FACE ( 'NONE', ( #212 ), #166, .T. ) ;
#76 = CLOSED_SHELL ( 'NONE', ( #101, #75, #147, #58, #47, #27, #215, #38, #98 ) ) ;
#77 = CARTESIAN_POINT ( 'NONE',  ( 0.000000000000000000, 0.000000000000000000, 0.000000000000000000 ) ) ;
#78 = TOROIDAL_SURFACE ( 'NONE', #171, 3.299999999999999822, 0.2000000000000000111 ) ;
#79 = EDGE_LOOP ( 'NONE', ( #254, #222, #99, #145 ) ) ;
#80 = DIRECTION ( 'NONE',  ( -1.000000000000000000, 0.000000000000000000, 0.000000000000000000 ) ) ;
#81 = DIRECTION ( 'NONE',  ( -0.000000000000000000, -0.000000000000000000, -1.000000000000000000 ) ) ;
#82 = DIRECTION ( 'NONE',  ( 0.000000000000000000, 0.000000000000000000, 1.000000000000000000 ) ) ;
#83 = FACE_OUTER_BOUND ( 'NONE', #44, .T. ) ;
#84 = CARTESIAN_POINT ( 'NONE',  ( 0.000000000000000000, 0.000000000000000000, 5.199999999999996625 ) ) ;
#85 = AXIS2_PLACEMENT_3D ( 'NONE', #31, #267, #178 ) ;
#86 = CC_DESIGN_SECURITY_CLASSIFICATION ( #261, ( #51 ) ) ;
#87 = CARTESIAN_POINT ( 'NONE',  ( 0.000000000000000000, 0.000000000000000000, 5.199999999999996625 ) ) ;
#88 = PRODUCT ( '5ebe', '5ebe', '', ( #56 ) ) ;
#89 = DIRECTION ( 'NONE',  ( 1.000000000000000000, 0.000000000000000000, 0.000000000000000000 ) ) ;
#90 = CARTESIAN_POINT ( 'NONE',  ( 0.000000000000000000, 0.000000000000000000, 5.000000000000000000 ) ) ;
#91 = PRODUCT_DEFINITION ( 'NEZNÁMÝ', '', #51, #130 ) ;
#92 = COORDINATED_UNIVERSAL_TIME_OFFSET ( 1, 0, .AHEAD. ) ;
#93 = CIRCLE ( 'NONE', #64, 3.100000000000000089 ) ;
#94 = ORGANIZATION ( 'NEURÈENÝ', 'NEURÈENÝ', '' ) ;
#95 = APPROVAL_DATE_TIME ( #140, #5 ) ;
#96 = PERSON_AND_ORGANIZATION ( #218, #94 ) ;
#97 = FACE_OUTER_BOUND ( 'NONE', #242, .T. ) ;
#98 = ADVANCED_FACE ( 'NONE', ( #296 ), #216, .F. ) ;
#99 = ORIENTED_EDGE ( 'NONE', *, *, #244, .T. ) ;
#100 = DIRECTION ( 'NONE',  ( 0.000000000000000000, 0.000000000000000000, 1.000000000000000000 ) ) ;
#101 = ADVANCED_FACE ( 'NONE', ( #225 ), #78, .F. ) ;
#102 = CARTESIAN_POINT ( 'NONE',  ( -3.299999999999999822, 4.041334437186265510E-16, 4.999999999999998224 ) ) ;
#103 = CIRCLE ( 'NONE', #197, 3.299999999999999822 ) ;
#104 = VERTEX_POINT ( 'NONE', #243 ) ;
#105 = DIRECTION ( 'NONE',  ( 1.000000000000000000, 0.000000000000000000, 0.000000000000000000 ) ) ;
#106 = EDGE_LOOP ( 'NONE', ( #73, #214 ) ) ;
#107 = ORIENTED_EDGE ( 'NONE', *, *, #228, .T. ) ;
#108 = LINE ( 'NONE', #53, #286 ) ;
#109 = APPROVAL_ROLE ( '' ) ;
#110 = EDGE_CURVE ( 'NONE', #144, #30, #17, .T. ) ;
#111 = ORIENTED_EDGE ( 'NONE', *, *, #251, .F. ) ;
#112 = DIRECTION ( 'NONE',  ( 1.000000000000000000, 0.000000000000000000, 0.000000000000000000 ) ) ;
#113 = PERSON_AND_ORGANIZATION ( #218, #94 ) ;
#114 = DIRECTION ( 'NONE',  ( 0.000000000000000000, 0.000000000000000000, 1.000000000000000000 ) ) ;
#115 = DIRECTION ( 'NONE',  ( -0.000000000000000000, -0.000000000000000000, -1.000000000000000000 ) ) ;
#116 = AXIS2_PLACEMENT_3D ( 'NONE', #90, #135, #175 ) ;
#117 = CARTESIAN_POINT ( 'NONE',  ( -6.000000000000000888, 0.000000000000000000, 5.000000000000000000 ) ) ;
#118 = PERSON_AND_ORGANIZATION ( #218, #94 ) ;
#119 = VECTOR ( 'NONE', #223, 1000.000000000000000 ) ;
#120 = PERSON_AND_ORGANIZATION ( #218, #94 ) ;
#121 = EDGE_CURVE ( 'NONE', #232, #219, #55, .T. ) ;
#122 = DIRECTION ( 'NONE',  ( 1.000000000000000000, 0.000000000000000000, -0.000000000000000000 ) ) ;
#123 = APPROVAL_STATUS ( 'not_yet_approved' ) ;
#124 = PLANE ( 'NONE',  #46 ) ;
#125 = DIRECTION ( 'NONE',  ( -0.000000000000000000, -0.000000000000000000, -1.000000000000000000 ) ) ;
#126 = EDGE_LOOP ( 'NONE', ( #107, #194 ) ) ;
#127 = APPROVAL_ROLE ( '' ) ;
#128 = CIRCLE ( 'NONE', #295, 3.100000000000000089 ) ;
#129 = DIRECTION ( 'NONE',  ( 0.000000000000000000, 0.000000000000000000, 1.000000000000000000 ) ) ;
#130 = DESIGN_CONTEXT ( 'detailed design', #209, 'design' ) ;
#131 = DIRECTION ( 'NONE',  ( 1.000000000000000000, 0.000000000000000000, 0.000000000000000000 ) ) ;
#132 = EDGE_CURVE ( 'NONE', #219, #259, #238, .T. ) ;
#133 = CIRCLE ( 'NONE', #24, 3.299999999999999822 ) ;
#134 = CARTESIAN_POINT ( 'NONE',  ( -3.100000000000000089, 0.000000000000000000, 105.0000000000000142 ) ) ;
#135 = DIRECTION ( 'NONE',  ( -0.000000000000000000, -0.000000000000000000, -1.000000000000000000 ) ) ;
#136 = CYLINDRICAL_SURFACE ( 'NONE', #269, 3.100000000000000089 ) ;
#137 = APPLICATION_CONTEXT ( 'configuration controlled 3d designs of mechanical parts and assemblies' ) ;
#138 = PERSON_AND_ORGANIZATION_ROLE ( 'classification_officer' ) ;
#139 = EDGE_CURVE ( 'NONE', #104, #45, #189, .T. ) ;
#140 = DATE_AND_TIME ( #229, #213 ) ;
#141 = EDGE_LOOP ( 'NONE', ( #19, #307 ) ) ;
#142 = CC_DESIGN_APPROVAL ( #5, ( #261 ) ) ;
#143 = DATE_TIME_ROLE ( 'classification_date' ) ;
#144 = VERTEX_POINT ( 'NONE', #117 ) ;
#145 = ORIENTED_EDGE ( 'NONE', *, *, #159, .F. ) ;
#146 = CARTESIAN_POINT ( 'NONE',  ( 0.000000000000000000, 0.000000000000000000, 0.000000000000000000 ) ) ;
#147 = ADVANCED_FACE ( 'NONE', ( #33 ), #60, .T. ) ;
#148 = CARTESIAN_POINT ( 'NONE',  ( 0.000000000000000000, 0.000000000000000000, 5.000000000000000000 ) ) ;
#149 = CIRCLE ( 'NONE', #12, 3.100000000000000089 ) ;
#150 = CARTESIAN_POINT ( 'NONE',  ( 0.000000000000000000, 0.000000000000000000, 105.0000000000000142 ) ) ;
#151 = ORIENTED_EDGE ( 'NONE', *, *, #244, .F. ) ;
#152 = UNCERTAINTY_MEASURE_WITH_UNIT (LENGTH_MEASURE( 1.000000000000000082E-05 ), #49, 'distance_accuracy_value', 'NONE');
#153 = DIRECTION ( 'NONE',  ( 0.000000000000000000, 0.000000000000000000, 1.000000000000000000 ) ) ;
#154 = CARTESIAN_POINT ( 'NONE',  ( 0.000000000000000000, 0.000000000000000000, 0.000000000000000000 ) ) ;
#155 = DIRECTION ( 'NONE',  ( -0.000000000000000000, -0.000000000000000000, -1.000000000000000000 ) ) ;
#156 = CARTESIAN_POINT ( 'NONE',  ( 3.100000000000000089, 3.796405077356794918E-16, 105.0000000000000142 ) ) ;
#157 = AXIS2_PLACEMENT_3D ( 'NONE', #77, #129, #89 ) ;
#158 = DATE_AND_TIME ( #42, #181 ) ;
#159 = EDGE_CURVE ( 'NONE', #39, #104, #270, .T. ) ;
#160 = ORIENTED_EDGE ( 'NONE', *, *, #305, .T. ) ;
#161 = APPROVAL_DATE_TIME ( #16, #277 ) ;
#162 = DIRECTION ( 'NONE',  ( 1.000000000000000000, 0.000000000000000000, -0.000000000000000000 ) ) ;
#163 = APPROVAL_PERSON_ORGANIZATION ( #113, #255, #109 ) ;
#164 = EDGE_LOOP ( 'NONE', ( #169, #72, #6, #258 ) ) ;
#165 = ORIENTED_EDGE ( 'NONE', *, *, #289, .T. ) ;
#166 = CYLINDRICAL_SURFACE ( 'NONE', #40, 3.100000000000000089 ) ;
#167 = CIRCLE ( 'NONE', #284, 6.000000000000000888 ) ;
#168 = EDGE_CURVE ( 'NONE', #144, #304, #108, .T. ) ;
#169 = ORIENTED_EDGE ( 'NONE', *, *, #208, .F. ) ;
#170 = CARTESIAN_POINT ( 'NONE',  ( 0.000000000000000000, 0.000000000000000000, 105.0000000000000142 ) ) ;
#171 = AXIS2_PLACEMENT_3D ( 'NONE', #273, #153, #112 ) ;
#172 = LOCAL_TIME ( 12, 12, 8.000000000000000000, #92 ) ;
#173 = CC_DESIGN_PERSON_AND_ORGANIZATION_ASSIGNMENT ( #256, #138, ( #261 ) ) ;
#174 = ORIENTED_EDGE ( 'NONE', *, *, #132, .T. ) ;
#175 = DIRECTION ( 'NONE',  ( -1.000000000000000000, 0.000000000000000000, 0.000000000000000000 ) ) ;
#176 = DIRECTION ( 'NONE',  ( 1.000000000000000000, 0.000000000000000000, 0.000000000000000000 ) ) ;
#177 = DIRECTION ( 'NONE',  ( 1.000000000000000000, 0.000000000000000000, 0.000000000000000000 ) ) ;
#178 = DIRECTION ( 'NONE',  ( 0.000000000000000000, 0.000000000000000000, -1.000000000000000000 ) ) ;
#179 = AXIS2_PLACEMENT_3D ( 'NONE', #257, #235, #162 ) ;
#180 = CIRCLE ( 'NONE', #41, 3.100000000000000089 ) ;
#181 = LOCAL_TIME ( 12, 12, 8.000000000000000000, #186 ) ;
#182 = LINE ( 'NONE', #247, #234 ) ;
#183 = CARTESIAN_POINT ( 'NONE',  ( 6.000000000000000888, 7.347880794884120722E-16, 0.000000000000000000 ) ) ;
#184 = PERSON_AND_ORGANIZATION_ROLE ( 'creator' ) ;
#185 = CARTESIAN_POINT ( 'NONE',  ( 0.000000000000000000, 0.000000000000000000, 105.0000000000000142 ) ) ;
#186 = COORDINATED_UNIVERSAL_TIME_OFFSET ( 1, 0, .AHEAD. ) ;
#187 = ORIENTED_EDGE ( 'NONE', *, *, #193, .F. ) ;
#188 = MANIFOLD_SOLID_BREP ( 'Zaoblit1', #76 ) ;
#189 = CIRCLE ( 'NONE', #70, 0.2000000000000000944 ) ;
#190 = CYLINDRICAL_SURFACE ( 'NONE', #204, 6.000000000000000888 ) ;
#191 = ORIENTED_EDGE ( 'NONE', *, *, #305, .F. ) ;
#192 = VERTEX_POINT ( 'NONE', #183 ) ;
#193 = EDGE_CURVE ( 'NONE', #45, #259, #103, .T. ) ;
#194 = ORIENTED_EDGE ( 'NONE', *, *, #193, .T. ) ;
#195 = CARTESIAN_POINT ( 'NONE',  ( -6.000000000000000888, 0.000000000000000000, 0.000000000000000000 ) ) ;
#196 = EDGE_CURVE ( 'NONE', #39, #232, #93, .T. ) ;
#197 = AXIS2_PLACEMENT_3D ( 'NONE', #11, #298, #288 ) ;
#198 = DIRECTION ( 'NONE',  ( -0.000000000000000000, -0.000000000000000000, -1.000000000000000000 ) ) ;
#199 =( NAMED_UNIT ( * ) SI_UNIT ( $, .STERADIAN. ) SOLID_ANGLE_UNIT ( ) );
#200 = ORIENTED_EDGE ( 'NONE', *, *, #110, .T. ) ;
#201 = DIRECTION ( 'NONE',  ( -0.000000000000000000, -0.000000000000000000, -1.000000000000000000 ) ) ;
#202 = CC_DESIGN_PERSON_AND_ORGANIZATION_ASSIGNMENT ( #96, #184, ( #51 ) ) ;
#203 = DIRECTION ( 'NONE',  ( -1.000000000000000000, 0.000000000000000000, 0.000000000000000000 ) ) ;
#204 = AXIS2_PLACEMENT_3D ( 'NONE', #281, #125, #74 ) ;
#205 = APPROVAL_PERSON_ORGANIZATION ( #237, #277, #127 ) ;
#206 = DIRECTION ( 'NONE',  ( 1.000000000000000000, 0.000000000000000000, 0.000000000000000000 ) ) ;
#207 = APPROVAL_DATE_TIME ( #245, #255 ) ;
#208 = EDGE_CURVE ( 'NONE', #104, #219, #128, .T. ) ;
#209 = APPLICATION_CONTEXT ( 'configuration controlled 3d designs of mechanical parts and assemblies' ) ;
#210 = CARTESIAN_POINT ( 'NONE',  ( 6.000000000000000888, 7.347880794884120722E-16, 5.000000000000000000 ) ) ;
#211 = FACE_BOUND ( 'NONE', #126, .T. ) ;
#212 = FACE_OUTER_BOUND ( 'NONE', #79, .T. ) ;
#213 = LOCAL_TIME ( 12, 12, 8.000000000000000000, #62 ) ;
#214 = ORIENTED_EDGE ( 'NONE', *, *, #302, .T. ) ;
#215 = ADVANCED_FACE ( 'NONE', ( #83 ), #136, .T. ) ;
#216 = TOROIDAL_SURFACE ( 'NONE', #37, 3.299999999999999822, 0.2000000000000000111 ) ;
#217 = APPROVAL_STATUS ( 'not_yet_approved' ) ;
#218 = PERSON ( 'NEURÈENÝ', 'NEURÈENÝ', 'NEURÈENÝ', ('NEURÈENÝ'), ('NEURÈENÝ'), ('NEURÈENÝ') ) ;
#219 = VERTEX_POINT ( 'NONE', #226 ) ;
#220 = DIRECTION ( 'NONE',  ( 0.000000000000000000, 0.000000000000000000, 1.000000000000000000 ) ) ;
#221 = APPLICATION_PROTOCOL_DEFINITION ( 'international standard', 'config_control_design', 1994, #137 ) ;
#222 = ORIENTED_EDGE ( 'NONE', *, *, #121, .T. ) ;
#223 = DIRECTION ( 'NONE',  ( -0.000000000000000000, -0.000000000000000000, -1.000000000000000000 ) ) ;
#224 = CARTESIAN_POINT ( 'NONE',  ( 0.000000000000000000, 0.000000000000000000, 0.000000000000000000 ) ) ;
#225 = FACE_OUTER_BOUND ( 'NONE', #164, .T. ) ;
#226 = CARTESIAN_POINT ( 'NONE',  ( 3.100000000000000089, 3.796405077356794918E-16, 5.199999999999996625 ) ) ;
#227 = APPLICATION_PROTOCOL_DEFINITION ( 'international standard', 'config_control_design', 1994, #209 ) ;
#228 = EDGE_CURVE ( 'NONE', #259, #45, #133, .T. ) ;
#229 = CALENDAR_DATE ( 2022, 7, 7 ) ;
#230 = AXIS2_PLACEMENT_3D ( 'NONE', #148, #294, #9 ) ;
#231 = FACE_OUTER_BOUND ( 'NONE', #106, .T. ) ;
#232 = VERTEX_POINT ( 'NONE', #26 ) ;
#233 = DIRECTION ( 'NONE',  ( 1.000000000000000000, 0.000000000000000000, -0.000000000000000000 ) ) ;
#234 = VECTOR ( 'NONE', #115, 1000.000000000000000 ) ;
#235 = DIRECTION ( 'NONE',  ( 0.000000000000000000, 0.000000000000000000, 1.000000000000000000 ) ) ;
#236 = EDGE_CURVE ( 'NONE', #304, #192, #50, .T. ) ;
#237 = PERSON_AND_ORGANIZATION ( #218, #94 ) ;
#238 = CIRCLE ( 'NONE', #85, 0.1999999999999996503 ) ;
#239 = PERSON_AND_ORGANIZATION_ROLE ( 'design_owner' ) ;
#240 = ORIENTED_EDGE ( 'NONE', *, *, #196, .F. ) ;
#241 = DIRECTION ( 'NONE',  ( 0.000000000000000000, 0.000000000000000000, 1.000000000000000000 ) ) ;
#242 = EDGE_LOOP ( 'NONE', ( #111, #4, #276, #69 ) ) ;
#243 = CARTESIAN_POINT ( 'NONE',  ( -3.100000000000000089, 0.000000000000000000, 5.199999999999996625 ) ) ;
#244 = EDGE_CURVE ( 'NONE', #219, #104, #149, .T. ) ;
#245 = DATE_AND_TIME ( #291, #25 ) ;
#246 = DIRECTION ( 'NONE',  ( -1.000000000000000000, 1.224646799147353207E-16, 0.000000000000000000 ) ) ;
#247 = CARTESIAN_POINT ( 'NONE',  ( 6.000000000000000888, 7.347880794884120722E-16, 5.000000000000000000 ) ) ;
#248 = CARTESIAN_POINT ( 'NONE',  ( -3.299999999999999822, 4.041334437186265510E-16, 5.199999999999996625 ) ) ;
#249 = PRODUCT_DEFINITION_SHAPE ( 'NONE', 'NONE',  #91 ) ;
#250 = CARTESIAN_POINT ( 'NONE',  ( 3.299999999999999822, 0.000000000000000000, 4.999999999999998224 ) ) ;
#251 = EDGE_CURVE ( 'NONE', #30, #192, #182, .T. ) ;
#252 = VECTOR ( 'NONE', #81, 1000.000000000000000 ) ;
#253 = CALENDAR_DATE ( 2022, 7, 7 ) ;
#254 = ORIENTED_EDGE ( 'NONE', *, *, #302, .F. ) ;
#255 = APPROVAL ( #14, 'NEURÈENÝ' ) ;
#256 = PERSON_AND_ORGANIZATION ( #218, #94 ) ;
#257 = CARTESIAN_POINT ( 'NONE',  ( 0.000000000000000000, 0.000000000000000000, 105.0000000000000142 ) ) ;
#258 = ORIENTED_EDGE ( 'NONE', *, *, #132, .F. ) ;
#259 = VERTEX_POINT ( 'NONE', #250 ) ;
#260 = PRODUCT_RELATED_PRODUCT_CATEGORY ( 'detail', '', ( #88 ) ) ;
#261 = SECURITY_CLASSIFICATION ( '', '', #278 ) ;
#262 = DATE_AND_TIME ( #23, #172 ) ;
#263 = CC_DESIGN_APPROVAL ( #277, ( #51 ) ) ;
#264 = EDGE_LOOP ( 'NONE', ( #191, #266, #165, #28 ) ) ;
#265 = DIRECTION ( 'NONE',  ( 1.224646799147353207E-16, 1.000000000000000000, -0.000000000000000000 ) ) ;
#266 = ORIENTED_EDGE ( 'NONE', *, *, #251, .T. ) ;
#267 = DIRECTION ( 'NONE',  ( 0.000000000000000000, -1.000000000000000000, 0.000000000000000000 ) ) ;
#268 = DIRECTION ( 'NONE',  ( 1.000000000000000000, 0.000000000000000000, 0.000000000000000000 ) ) ;
#269 = AXIS2_PLACEMENT_3D ( 'NONE', #13, #198, #203 ) ;
#270 = LINE ( 'NONE', #134, #119 ) ;
#271 =( GEOMETRIC_REPRESENTATION_CONTEXT ( 3 ) GLOBAL_UNCERTAINTY_ASSIGNED_CONTEXT ( ( #152 ) ) GLOBAL_UNIT_ASSIGNED_CONTEXT ( ( #49, #3, #199 ) ) REPRESENTATION_CONTEXT ( 'NONE', 'WORKASPACE' ) );
#272 = COORDINATED_UNIVERSAL_TIME_OFFSET ( 1, 0, .AHEAD. ) ;
#273 = CARTESIAN_POINT ( 'NONE',  ( 0.000000000000000000, 0.000000000000000000, 5.199999999999996625 ) ) ;
#274 = DIRECTION ( 'NONE',  ( 0.000000000000000000, 0.000000000000000000, 1.000000000000000000 ) ) ;
#275 = DIRECTION ( 'NONE',  ( 0.000000000000000000, 0.000000000000000000, 1.000000000000000000 ) ) ;
#276 = ORIENTED_EDGE ( 'NONE', *, *, #168, .T. ) ;
#277 = APPROVAL ( #217, 'NEURÈENÝ' ) ;
#278 = SECURITY_CLASSIFICATION_LEVEL ( 'unclassified' ) ;
#279 = ORIENTED_EDGE ( 'NONE', *, *, #139, .F. ) ;
#280 = AXIS2_PLACEMENT_3D ( 'NONE', #283, #20, #122 ) ;
#281 = CARTESIAN_POINT ( 'NONE',  ( 0.000000000000000000, 0.000000000000000000, 5.000000000000000000 ) ) ;
#282 = FACE_OUTER_BOUND ( 'NONE', #141, .T. ) ;
#283 = CARTESIAN_POINT ( 'NONE',  ( 0.000000000000000000, 0.000000000000000000, 5.000000000000000000 ) ) ;
#284 = AXIS2_PLACEMENT_3D ( 'NONE', #154, #299, #268 ) ;
#285 = CIRCLE ( 'NONE', #230, 6.000000000000000888 ) ;
#286 = VECTOR ( 'NONE', #201, 1000.000000000000000 ) ;
#287 = CC_DESIGN_APPROVAL ( #255, ( #91 ) ) ;
#288 = DIRECTION ( 'NONE',  ( 1.000000000000000000, 0.000000000000000000, 0.000000000000000000 ) ) ;
#289 = EDGE_CURVE ( 'NONE', #192, #304, #167, .T. ) ;
#290 = CARTESIAN_POINT ( 'NONE',  ( 0.000000000000000000, 0.000000000000000000, 5.000000000000000000 ) ) ;
#291 = CALENDAR_DATE ( 2022, 7, 7 ) ;
#292 = EDGE_LOOP ( 'NONE', ( #279, #151, #174, #187 ) ) ;
#293 = CARTESIAN_POINT ( 'NONE',  ( 0.000000000000000000, 0.000000000000000000, 5.199999999999996625 ) ) ;
#294 = DIRECTION ( 'NONE',  ( 0.000000000000000000, 0.000000000000000000, 1.000000000000000000 ) ) ;
#295 = AXIS2_PLACEMENT_3D ( 'NONE', #293, #114, #34 ) ;
#296 = FACE_OUTER_BOUND ( 'NONE', #292, .T. ) ;
#297 = DIRECTION ( 'NONE',  ( 0.000000000000000000, 0.000000000000000000, 1.000000000000000000 ) ) ;
#298 = DIRECTION ( 'NONE',  ( -0.000000000000000000, -0.000000000000000000, -1.000000000000000000 ) ) ;
#299 = DIRECTION ( 'NONE',  ( 0.000000000000000000, 0.000000000000000000, 1.000000000000000000 ) ) ;
#300 = PERSON_AND_ORGANIZATION_ROLE ( 'design_supplier' ) ;
#301 = AXIS2_PLACEMENT_3D ( 'NONE', #224, #82, #105 ) ;
#302 = EDGE_CURVE ( 'NONE', #232, #39, #180, .T. ) ;
#303 = EDGE_LOOP ( 'NONE', ( #200, #160 ) ) ;
#304 = VERTEX_POINT ( 'NONE', #195 ) ;
#305 = EDGE_CURVE ( 'NONE', #30, #144, #285, .T. ) ;
#306 = ORIENTED_EDGE ( 'NONE', *, *, #159, .T. ) ;
#307 = ORIENTED_EDGE ( 'NONE', *, *, #289, .F. ) ;
ENDSEC;
END-ISO-10303-21;
