ISO-10303-21;
HEADER;
FILE_DESCRIPTION (( 'STEP AP203' ),
    '1' );
FILE_NAME ('9166.STEP',
    '2023-02-12T10:32:43',
    ( '' ),
    ( '' ),
    'SwSTEP 2.0',
    'SolidWorks 2019',
    '' );
FILE_SCHEMA (( 'CONFIG_CONTROL_DESIGN' ));
ENDSEC;

DATA;
#1 = EDGE_CURVE ( 'NONE', #86, #106, #71, .T. ) ;
#2 = APPROVAL_DATE_TIME ( #77, #72 ) ;
#3 = COORDINATED_UNIVERSAL_TIME_OFFSET ( 1, 0, .AHEAD. ) ;
#4 = VECTOR ( 'NONE', #206, 1000.000000000000000 ) ;
#5 = AXIS2_PLACEMENT_3D ( 'NONE', #70, #234, #55 ) ;
#6 = DATE_TIME_ROLE ( 'creation_date' ) ;
#7 = DATE_AND_TIME ( #97, #207 ) ;
#8 = EDGE_LOOP ( 'NONE', ( #99, #108, #52, #255 ) ) ;
#9 = CLOSED_SHELL ( 'NONE', ( #85, #182, #176, #69, #194, #20, #209 ) ) ;
#10 = CARTESIAN_POINT ( 'NONE',  ( 10.00000000000000000, 1.224646799147353256E-15, 250.0000000000000000 ) ) ;
#11 = DIRECTION ( 'NONE',  ( 0.000000000000000000, 0.000000000000000000, 1.000000000000000000 ) ) ;
#12 = AXIS2_PLACEMENT_3D ( 'NONE', #189, #215, #73 ) ;
#13 = DIRECTION ( 'NONE',  ( 1.000000000000000000, 0.000000000000000000, 0.000000000000000000 ) ) ;
#14 = MANIFOLD_SOLID_BREP ( 'Pøidat vysunutím3', #9 ) ;
#15 = CIRCLE ( 'NONE', #105, 13.00000000000000178 ) ;
#16 = VERTEX_POINT ( 'NONE', #120 ) ;
#17 = APPROVAL ( #60, 'NEURÈENÝ' ) ;
#18 = ORIENTED_EDGE ( 'NONE', *, *, #232, .F. ) ;
#19 = CC_DESIGN_APPROVAL ( #17, ( #162 ) ) ;
#20 = ADVANCED_FACE ( 'NONE', ( #241 ), #26, .T. ) ;
#21 = DATE_TIME_ROLE ( 'classification_date' ) ;
#22 = PLANE ( 'NONE',  #90 ) ;
#23 = CC_DESIGN_PERSON_AND_ORGANIZATION_ASSIGNMENT ( #159, #238, ( #162 ) ) ;
#24 = SECURITY_CLASSIFICATION_LEVEL ( 'unclassified' ) ;
#25 = ORIENTED_EDGE ( 'NONE', *, *, #149, .F. ) ;
#26 = CYLINDRICAL_SURFACE ( 'NONE', #30, 10.00000000000000000 ) ;
#27 = PRODUCT_DEFINITION ( 'NEZNÁMÝ', '', #162, #214 ) ;
#28 = CARTESIAN_POINT ( 'NONE',  ( 0.000000000000000000, 0.000000000000000000, 250.0000000000000000 ) ) ;
#29 = FACE_OUTER_BOUND ( 'NONE', #174, .T. ) ;
#30 = AXIS2_PLACEMENT_3D ( 'NONE', #76, #158, #156 ) ;
#31 = LOCAL_TIME ( 11, 32, 43.00000000000000000, #40 ) ;
#32 = LINE ( 'NONE', #50, #195 ) ;
#33 = ORIENTED_EDGE ( 'NONE', *, *, #190, .F. ) ;
#34 =( NAMED_UNIT ( * ) SI_UNIT ( $, .STERADIAN. ) SOLID_ANGLE_UNIT ( ) );
#35 = ORIENTED_EDGE ( 'NONE', *, *, #146, .T. ) ;
#36 = ORIENTED_EDGE ( 'NONE', *, *, #1, .F. ) ;
#37 = CC_DESIGN_PERSON_AND_ORGANIZATION_ASSIGNMENT ( #225, #183, ( #177 ) ) ;
#38 = AXIS2_PLACEMENT_3D ( 'NONE', #116, #46, #202 ) ;
#39 = PLANE ( 'NONE',  #83 ) ;
#40 = COORDINATED_UNIVERSAL_TIME_OFFSET ( 1, 0, .AHEAD. ) ;
#41 = CARTESIAN_POINT ( 'NONE',  ( -13.00000000000000178, 0.000000000000000000, 8.000000000000000000 ) ) ;
#42 = CARTESIAN_POINT ( 'NONE',  ( 0.000000000000000000, 0.000000000000000000, 250.0000000000000000 ) ) ;
#43 = APPROVAL_DATE_TIME ( #7, #17 ) ;
#44 = ORIENTED_EDGE ( 'NONE', *, *, #114, .T. ) ;
#45 = CIRCLE ( 'NONE', #200, 10.00000000000000000 ) ;
#46 = DIRECTION ( 'NONE',  ( 0.000000000000000000, 0.000000000000000000, 1.000000000000000000 ) ) ;
#47 = PLANE ( 'NONE',  #199 ) ;
#48 = DIRECTION ( 'NONE',  ( 1.000000000000000000, 0.000000000000000000, 0.000000000000000000 ) ) ;
#49 = CARTESIAN_POINT ( 'NONE',  ( 0.000000000000000000, 0.000000000000000000, 8.000000000000000000 ) ) ;
#50 = CARTESIAN_POINT ( 'NONE',  ( 13.00000000000000178, 1.592040838891559293E-15, 8.000000000000000000 ) ) ;
#51 = FACE_OUTER_BOUND ( 'NONE', #175, .T. ) ;
#52 = ORIENTED_EDGE ( 'NONE', *, *, #87, .T. ) ;
#53 = CC_DESIGN_PERSON_AND_ORGANIZATION_ASSIGNMENT ( #201, #181, ( #162 ) ) ;
#54 = ORIENTED_EDGE ( 'NONE', *, *, #132, .F. ) ;
#55 = DIRECTION ( 'NONE',  ( 1.000000000000000000, 0.000000000000000000, 0.000000000000000000 ) ) ;
#56 = ORIENTED_EDGE ( 'NONE', *, *, #149, .T. ) ;
#57 = VERTEX_POINT ( 'NONE', #41 ) ;
#58 = SHAPE_DEFINITION_REPRESENTATION ( #112, #245 ) ;
#59 = DIRECTION ( 'NONE',  ( 1.000000000000000000, 0.000000000000000000, -0.000000000000000000 ) ) ;
#60 = APPROVAL_STATUS ( 'not_yet_approved' ) ;
#61 = DIRECTION ( 'NONE',  ( -0.000000000000000000, -0.000000000000000000, -1.000000000000000000 ) ) ;
#62 = PERSON_AND_ORGANIZATION ( #229, #224 ) ;
#63 = AXIS2_PLACEMENT_3D ( 'NONE', #65, #204, #101 ) ;
#64 = APPROVAL_PERSON_ORGANIZATION ( #197, #72, #92 ) ;
#65 = CARTESIAN_POINT ( 'NONE',  ( 0.000000000000000000, 0.000000000000000000, 8.000000000000000000 ) ) ;
#66 = DIRECTION ( 'NONE',  ( 1.000000000000000000, 0.000000000000000000, 0.000000000000000000 ) ) ;
#67 = APPLICATION_CONTEXT ( 'configuration controlled 3d designs of mechanical parts and assemblies' ) ;
#68 = CC_DESIGN_SECURITY_CLASSIFICATION ( #177, ( #162 ) ) ;
#69 = ADVANCED_FACE ( 'NONE', ( #198, #185 ), #22, .T. ) ;
#70 = CARTESIAN_POINT ( 'NONE',  ( 0.000000000000000000, 0.000000000000000000, 0.000000000000000000 ) ) ;
#71 = CIRCLE ( 'NONE', #38, 10.00000000000000000 ) ;
#72 = APPROVAL ( #220, 'NEURÈENÝ' ) ;
#73 = DIRECTION ( 'NONE',  ( 1.000000000000000000, 0.000000000000000000, 0.000000000000000000 ) ) ;
#74 = EDGE_LOOP ( 'NONE', ( #54, #44, #35, #128 ) ) ;
#75 = APPROVAL_DATE_TIME ( #78, #93 ) ;
#76 = CARTESIAN_POINT ( 'NONE',  ( 0.000000000000000000, 0.000000000000000000, 250.0000000000000000 ) ) ;
#77 = DATE_AND_TIME ( #178, #91 ) ;
#78 = DATE_AND_TIME ( #142, #143 ) ;
#79 = AXIS2_PLACEMENT_3D ( 'NONE', #127, #123, #230 ) ;
#80 = LOCAL_TIME ( 11, 32, 43.00000000000000000, #219 ) ;
#81 = CARTESIAN_POINT ( 'NONE',  ( -13.00000000000000178, 0.000000000000000000, 8.000000000000000000 ) ) ;
#82 = DIRECTION ( 'NONE',  ( -1.000000000000000000, 0.000000000000000000, 0.000000000000000000 ) ) ;
#83 = AXIS2_PLACEMENT_3D ( 'NONE', #107, #217, #171 ) ;
#84 = FACE_OUTER_BOUND ( 'NONE', #8, .T. ) ;
#85 = ADVANCED_FACE ( 'NONE', ( #140 ), #221, .T. ) ;
#86 = VERTEX_POINT ( 'NONE', #166 ) ;
#87 = EDGE_CURVE ( 'NONE', #57, #192, #103, .T. ) ;
#88 = DIRECTION ( 'NONE',  ( 1.000000000000000000, 0.000000000000000000, -0.000000000000000000 ) ) ;
#89 = EDGE_LOOP ( 'NONE', ( #36, #254 ) ) ;
#90 = AXIS2_PLACEMENT_3D ( 'NONE', #240, #95, #59 ) ;
#91 = LOCAL_TIME ( 11, 32, 43.00000000000000000, #3 ) ;
#92 = APPROVAL_ROLE ( '' ) ;
#93 = APPROVAL ( #94, 'NEURÈENÝ' ) ;
#94 = APPROVAL_STATUS ( 'not_yet_approved' ) ;
#95 = DIRECTION ( 'NONE',  ( 0.000000000000000000, 0.000000000000000000, 1.000000000000000000 ) ) ;
#96 = DATE_AND_TIME ( #115, #80 ) ;
#97 = CALENDAR_DATE ( 2023, 12, 2 ) ;
#98 = CC_DESIGN_DATE_AND_TIME_ASSIGNMENT ( #96, #21, ( #177 ) ) ;
#99 = ORIENTED_EDGE ( 'NONE', *, *, #114, .F. ) ;
#100 = CIRCLE ( 'NONE', #239, 13.00000000000000178 ) ;
#101 = DIRECTION ( 'NONE',  ( -1.000000000000000000, 0.000000000000000000, 0.000000000000000000 ) ) ;
#102 = DIRECTION ( 'NONE',  ( -1.000000000000000000, 0.000000000000000000, 0.000000000000000000 ) ) ;
#103 = LINE ( 'NONE', #81, #243 ) ;
#104 =( GEOMETRIC_REPRESENTATION_CONTEXT ( 3 ) GLOBAL_UNCERTAINTY_ASSIGNED_CONTEXT ( ( #236 ) ) GLOBAL_UNIT_ASSIGNED_CONTEXT ( ( #129, #136, #34 ) ) REPRESENTATION_CONTEXT ( 'NONE', 'WORKASPACE' ) );
#105 = AXIS2_PLACEMENT_3D ( 'NONE', #170, #251, #48 ) ;
#106 = VERTEX_POINT ( 'NONE', #228 ) ;
#107 = CARTESIAN_POINT ( 'NONE',  ( 0.000000000000000000, 0.000000000000000000, 250.0000000000000000 ) ) ;
#108 = ORIENTED_EDGE ( 'NONE', *, *, #137, .F. ) ;
#109 = VERTEX_POINT ( 'NONE', #164 ) ;
#110 = DIRECTION ( 'NONE',  ( 1.000000000000000000, 0.000000000000000000, 0.000000000000000000 ) ) ;
#111 = ORIENTED_EDGE ( 'NONE', *, *, #132, .T. ) ;
#112 = PRODUCT_DEFINITION_SHAPE ( 'NONE', 'NONE',  #27 ) ;
#113 = COORDINATED_UNIVERSAL_TIME_OFFSET ( 1, 0, .AHEAD. ) ;
#114 = EDGE_CURVE ( 'NONE', #148, #160, #32, .T. ) ;
#115 = CALENDAR_DATE ( 2023, 12, 2 ) ;
#116 = CARTESIAN_POINT ( 'NONE',  ( 0.000000000000000000, 0.000000000000000000, 8.000000000000000000 ) ) ;
#117 = APPLICATION_CONTEXT ( 'configuration controlled 3d designs of mechanical parts and assemblies' ) ;
#118 = APPROVAL_ROLE ( '' ) ;
#119 = CIRCLE ( 'NONE', #12, 10.00000000000000000 ) ;
#120 = CARTESIAN_POINT ( 'NONE',  ( -10.00000000000000000, 0.000000000000000000, 250.0000000000000000 ) ) ;
#121 = DIRECTION ( 'NONE',  ( -0.000000000000000000, -0.000000000000000000, -1.000000000000000000 ) ) ;
#122 = CARTESIAN_POINT ( 'NONE',  ( 13.00000000000000178, 1.592040838891559293E-15, 8.000000000000000000 ) ) ;
#123 = DIRECTION ( 'NONE',  ( 0.000000000000000000, 0.000000000000000000, 1.000000000000000000 ) ) ;
#124 = AXIS2_PLACEMENT_3D ( 'NONE', #42, #61, #82 ) ;
#125 = CARTESIAN_POINT ( 'NONE',  ( 0.000000000000000000, 0.000000000000000000, 8.000000000000000000 ) ) ;
#126 = CC_DESIGN_PERSON_AND_ORGANIZATION_ASSIGNMENT ( #242, #157, ( #27 ) ) ;
#127 = CARTESIAN_POINT ( 'NONE',  ( 0.000000000000000000, 0.000000000000000000, 8.000000000000000000 ) ) ;
#128 = ORIENTED_EDGE ( 'NONE', *, *, #87, .F. ) ;
#129 =( LENGTH_UNIT ( ) NAMED_UNIT ( * ) SI_UNIT ( .MILLI., .METRE. ) );
#130 = AXIS2_PLACEMENT_3D ( 'NONE', #28, #208, #13 ) ;
#131 = AXIS2_PLACEMENT_3D ( 'NONE', #186, #11, #66 ) ;
#132 = EDGE_CURVE ( 'NONE', #148, #57, #150, .T. ) ;
#133 = MECHANICAL_CONTEXT ( 'NONE', #117, 'mechanical' ) ;
#134 = DIRECTION ( 'NONE',  ( 0.000000000000000000, 0.000000000000000000, 1.000000000000000000 ) ) ;
#135 = ORIENTED_EDGE ( 'NONE', *, *, #137, .T. ) ;
#136 =( NAMED_UNIT ( * ) PLANE_ANGLE_UNIT ( ) SI_UNIT ( $, .RADIAN. ) );
#137 = EDGE_CURVE ( 'NONE', #57, #148, #100, .T. ) ;
#138 = COORDINATED_UNIVERSAL_TIME_OFFSET ( 1, 0, .AHEAD. ) ;
#139 = APPROVAL_ROLE ( '' ) ;
#140 = FACE_OUTER_BOUND ( 'NONE', #193, .T. ) ;
#141 = CIRCLE ( 'NONE', #130, 10.00000000000000000 ) ;
#142 = CALENDAR_DATE ( 2023, 12, 2 ) ;
#143 = LOCAL_TIME ( 11, 32, 43.00000000000000000, #113 ) ;
#144 = EDGE_CURVE ( 'NONE', #109, #16, #141, .T. ) ;
#145 = CARTESIAN_POINT ( 'NONE',  ( -13.00000000000000178, 0.000000000000000000, 0.000000000000000000 ) ) ;
#146 = EDGE_CURVE ( 'NONE', #160, #192, #15, .T. ) ;
#147 = CARTESIAN_POINT ( 'NONE',  ( -10.00000000000000000, 0.000000000000000000, 250.0000000000000000 ) ) ;
#148 = VERTEX_POINT ( 'NONE', #122 ) ;
#149 = EDGE_CURVE ( 'NONE', #109, #106, #169, .T. ) ;
#150 = CIRCLE ( 'NONE', #79, 13.00000000000000178 ) ;
#151 = VECTOR ( 'NONE', #191, 1000.000000000000000 ) ;
#152 = EDGE_LOOP ( 'NONE', ( #25, #184, #173, #213 ) ) ;
#153 = DIRECTION ( 'NONE',  ( 0.000000000000000000, 0.000000000000000000, 1.000000000000000000 ) ) ;
#154 = PRODUCT ( '9166', '9166', '', ( #133 ) ) ;
#155 = PERSON_AND_ORGANIZATION ( #229, #224 ) ;
#156 = DIRECTION ( 'NONE',  ( -1.000000000000000000, 0.000000000000000000, 0.000000000000000000 ) ) ;
#157 = PERSON_AND_ORGANIZATION_ROLE ( 'creator' ) ;
#158 = DIRECTION ( 'NONE',  ( -0.000000000000000000, -0.000000000000000000, -1.000000000000000000 ) ) ;
#159 = PERSON_AND_ORGANIZATION ( #229, #224 ) ;
#160 = VERTEX_POINT ( 'NONE', #205 ) ;
#161 = PERSON_AND_ORGANIZATION ( #229, #224 ) ;
#162 = PRODUCT_DEFINITION_FORMATION_WITH_SPECIFIED_SOURCE ( 'LIBOVOLNÝ', '', #154, .NOT_KNOWN. ) ;
#163 = PRODUCT_RELATED_PRODUCT_CATEGORY ( 'detail', '', ( #154 ) ) ;
#164 = CARTESIAN_POINT ( 'NONE',  ( 10.00000000000000000, 1.224646799147353256E-15, 250.0000000000000000 ) ) ;
#165 = DIRECTION ( 'NONE',  ( -0.000000000000000000, -0.000000000000000000, -1.000000000000000000 ) ) ;
#166 = CARTESIAN_POINT ( 'NONE',  ( -10.00000000000000000, 0.000000000000000000, 8.000000000000000000 ) ) ;
#167 = CC_DESIGN_APPROVAL ( #72, ( #177 ) ) ;
#168 = CC_DESIGN_PERSON_AND_ORGANIZATION_ASSIGNMENT ( #155, #179, ( #154 ) ) ;
#169 = LINE ( 'NONE', #10, #4 ) ;
#170 = CARTESIAN_POINT ( 'NONE',  ( 0.000000000000000000, 0.000000000000000000, 0.000000000000000000 ) ) ;
#171 = DIRECTION ( 'NONE',  ( 1.000000000000000000, 0.000000000000000000, -0.000000000000000000 ) ) ;
#172 = CC_DESIGN_DATE_AND_TIME_ASSIGNMENT ( #196, #6, ( #27 ) ) ;
#173 = ORIENTED_EDGE ( 'NONE', *, *, #232, .T. ) ;
#174 = EDGE_LOOP ( 'NONE', ( #33, #235 ) ) ;
#175 = EDGE_LOOP ( 'NONE', ( #244, #227 ) ) ;
#176 = ADVANCED_FACE ( 'NONE', ( #84 ), #187, .T. ) ;
#177 = SECURITY_CLASSIFICATION ( '', '', #24 ) ;
#178 = CALENDAR_DATE ( 2023, 12, 2 ) ;
#179 = PERSON_AND_ORGANIZATION_ROLE ( 'design_owner' ) ;
#180 = APPROVAL_PERSON_ORGANIZATION ( #161, #93, #118 ) ;
#181 = PERSON_AND_ORGANIZATION_ROLE ( 'creator' ) ;
#182 = ADVANCED_FACE ( 'NONE', ( #246 ), #247, .T. ) ;
#183 = PERSON_AND_ORGANIZATION_ROLE ( 'classification_officer' ) ;
#184 = ORIENTED_EDGE ( 'NONE', *, *, #226, .F. ) ;
#185 = FACE_OUTER_BOUND ( 'NONE', #216, .T. ) ;
#186 = CARTESIAN_POINT ( 'NONE',  ( 0.000000000000000000, 0.000000000000000000, 0.000000000000000000 ) ) ;
#187 = CYLINDRICAL_SURFACE ( 'NONE', #212, 13.00000000000000178 ) ;
#188 = DIRECTION ( 'NONE',  ( 0.000000000000000000, 0.000000000000000000, 1.000000000000000000 ) ) ;
#189 = CARTESIAN_POINT ( 'NONE',  ( 0.000000000000000000, 0.000000000000000000, 250.0000000000000000 ) ) ;
#190 = EDGE_CURVE ( 'NONE', #192, #160, #249, .T. ) ;
#191 = DIRECTION ( 'NONE',  ( -0.000000000000000000, -0.000000000000000000, -1.000000000000000000 ) ) ;
#192 = VERTEX_POINT ( 'NONE', #145 ) ;
#193 = EDGE_LOOP ( 'NONE', ( #211, #56, #223, #18 ) ) ;
#194 = ADVANCED_FACE ( 'NONE', ( #29 ), #47, .F. ) ;
#195 = VECTOR ( 'NONE', #165, 1000.000000000000000 ) ;
#196 = DATE_AND_TIME ( #222, #31 ) ;
#197 = PERSON_AND_ORGANIZATION ( #229, #224 ) ;
#198 = FACE_BOUND ( 'NONE', #89, .T. ) ;
#199 = AXIS2_PLACEMENT_3D ( 'NONE', #210, #134, #88 ) ;
#200 = AXIS2_PLACEMENT_3D ( 'NONE', #253, #153, #110 ) ;
#201 = PERSON_AND_ORGANIZATION ( #229, #224 ) ;
#202 = DIRECTION ( 'NONE',  ( 1.000000000000000000, 0.000000000000000000, 0.000000000000000000 ) ) ;
#203 = APPLICATION_PROTOCOL_DEFINITION ( 'international standard', 'config_control_design', 1994, #67 ) ;
#204 = DIRECTION ( 'NONE',  ( -0.000000000000000000, -0.000000000000000000, -1.000000000000000000 ) ) ;
#205 = CARTESIAN_POINT ( 'NONE',  ( 13.00000000000000178, 1.592040838891559293E-15, 0.000000000000000000 ) ) ;
#206 = DIRECTION ( 'NONE',  ( -0.000000000000000000, -0.000000000000000000, -1.000000000000000000 ) ) ;
#207 = LOCAL_TIME ( 11, 32, 43.00000000000000000, #138 ) ;
#208 = DIRECTION ( 'NONE',  ( 0.000000000000000000, 0.000000000000000000, 1.000000000000000000 ) ) ;
#209 = ADVANCED_FACE ( 'NONE', ( #51 ), #39, .T. ) ;
#210 = CARTESIAN_POINT ( 'NONE',  ( 0.000000000000000000, 0.000000000000000000, 0.000000000000000000 ) ) ;
#211 = ORIENTED_EDGE ( 'NONE', *, *, #144, .F. ) ;
#212 = AXIS2_PLACEMENT_3D ( 'NONE', #125, #121, #102 ) ;
#213 = ORIENTED_EDGE ( 'NONE', *, *, #1, .T. ) ;
#214 = DESIGN_CONTEXT ( 'detailed design', #67, 'design' ) ;
#215 = DIRECTION ( 'NONE',  ( 0.000000000000000000, 0.000000000000000000, 1.000000000000000000 ) ) ;
#216 = EDGE_LOOP ( 'NONE', ( #135, #111 ) ) ;
#217 = DIRECTION ( 'NONE',  ( 0.000000000000000000, 0.000000000000000000, 1.000000000000000000 ) ) ;
#218 = APPROVAL_PERSON_ORGANIZATION ( #62, #17, #139 ) ;
#219 = COORDINATED_UNIVERSAL_TIME_OFFSET ( 1, 0, .AHEAD. ) ;
#220 = APPROVAL_STATUS ( 'not_yet_approved' ) ;
#221 = CYLINDRICAL_SURFACE ( 'NONE', #124, 10.00000000000000000 ) ;
#222 = CALENDAR_DATE ( 2023, 12, 2 ) ;
#223 = ORIENTED_EDGE ( 'NONE', *, *, #248, .T. ) ;
#224 = ORGANIZATION ( 'NEURÈENÝ', 'NEURÈENÝ', '' ) ;
#225 = PERSON_AND_ORGANIZATION ( #229, #224 ) ;
#226 = EDGE_CURVE ( 'NONE', #16, #109, #119, .T. ) ;
#227 = ORIENTED_EDGE ( 'NONE', *, *, #144, .T. ) ;
#228 = CARTESIAN_POINT ( 'NONE',  ( 10.00000000000000000, 1.224646799147353256E-15, 8.000000000000000000 ) ) ;
#229 = PERSON ( 'NEURÈENÝ', 'NEURÈENÝ', 'NEURÈENÝ', ('NEURÈENÝ'), ('NEURÈENÝ'), ('NEURÈENÝ') ) ;
#230 = DIRECTION ( 'NONE',  ( 1.000000000000000000, 0.000000000000000000, 0.000000000000000000 ) ) ;
#231 = DIRECTION ( 'NONE',  ( -0.000000000000000000, -0.000000000000000000, -1.000000000000000000 ) ) ;
#232 = EDGE_CURVE ( 'NONE', #16, #86, #237, .T. ) ;
#233 = APPLICATION_PROTOCOL_DEFINITION ( 'international standard', 'config_control_design', 1994, #117 ) ;
#234 = DIRECTION ( 'NONE',  ( 0.000000000000000000, 0.000000000000000000, 1.000000000000000000 ) ) ;
#235 = ORIENTED_EDGE ( 'NONE', *, *, #146, .F. ) ;
#236 = UNCERTAINTY_MEASURE_WITH_UNIT (LENGTH_MEASURE( 1.000000000000000082E-05 ), #129, 'distance_accuracy_value', 'NONE');
#237 = LINE ( 'NONE', #147, #151 ) ;
#238 = PERSON_AND_ORGANIZATION_ROLE ( 'design_supplier' ) ;
#239 = AXIS2_PLACEMENT_3D ( 'NONE', #49, #188, #252 ) ;
#240 = CARTESIAN_POINT ( 'NONE',  ( 0.000000000000000000, 0.000000000000000000, 8.000000000000000000 ) ) ;
#241 = FACE_OUTER_BOUND ( 'NONE', #152, .T. ) ;
#242 = PERSON_AND_ORGANIZATION ( #229, #224 ) ;
#243 = VECTOR ( 'NONE', #231, 1000.000000000000000 ) ;
#244 = ORIENTED_EDGE ( 'NONE', *, *, #226, .T. ) ;
#245 = ADVANCED_BREP_SHAPE_REPRESENTATION ( '9166', ( #14, #5 ), #104 ) ;
#246 = FACE_OUTER_BOUND ( 'NONE', #74, .T. ) ;
#247 = CYLINDRICAL_SURFACE ( 'NONE', #63, 13.00000000000000178 ) ;
#248 = EDGE_CURVE ( 'NONE', #106, #86, #45, .T. ) ;
#249 = CIRCLE ( 'NONE', #131, 13.00000000000000178 ) ;
#250 = CC_DESIGN_APPROVAL ( #93, ( #27 ) ) ;
#251 = DIRECTION ( 'NONE',  ( 0.000000000000000000, 0.000000000000000000, 1.000000000000000000 ) ) ;
#252 = DIRECTION ( 'NONE',  ( 1.000000000000000000, 0.000000000000000000, 0.000000000000000000 ) ) ;
#253 = CARTESIAN_POINT ( 'NONE',  ( 0.000000000000000000, 0.000000000000000000, 8.000000000000000000 ) ) ;
#254 = ORIENTED_EDGE ( 'NONE', *, *, #248, .F. ) ;
#255 = ORIENTED_EDGE ( 'NONE', *, *, #190, .T. ) ;
ENDSEC;
END-ISO-10303-21;
