ISO-10303-21;
HEADER;
FILE_DESCRIPTION (( 'STEP AP203' ),
    '1' );
FILE_NAME ('0ec8.STEP',
    '2022-07-07T10:17:59',
    ( '' ),
    ( '' ),
    'SwSTEP 2.0',
    'SolidWorks 2019',
    '' );
FILE_SCHEMA (( 'CONFIG_CONTROL_DESIGN' ));
ENDSEC;

DATA;
#1 = PRODUCT ( '0ec8', '0ec8', '', ( #234 ) ) ;
#2 = ORIENTED_EDGE ( 'NONE', *, *, #286, .F. ) ;
#3 = LOCAL_TIME ( 12, 17, 59.00000000000000000, #187 ) ;
#4 = ORIENTED_EDGE ( 'NONE', *, *, #193, .T. ) ;
#5 = CC_DESIGN_DATE_AND_TIME_ASSIGNMENT ( #118, #211, ( #282 ) ) ;
#6 = AXIS2_PLACEMENT_3D ( 'NONE', #44, #9, #40 ) ;
#7 = EDGE_CURVE ( 'NONE', #101, #307, #158, .T. ) ;
#8 = DESIGN_CONTEXT ( 'detailed design', #300, 'design' ) ;
#9 = DIRECTION ( 'NONE',  ( 0.000000000000000000, 0.000000000000000000, 1.000000000000000000 ) ) ;
#10 = CIRCLE ( 'NONE', #181, 0.2000000000000000944 ) ;
#11 = ORIENTED_EDGE ( 'NONE', *, *, #204, .T. ) ;
#12 = DIRECTION ( 'NONE',  ( -1.000000000000000000, 0.000000000000000000, 0.000000000000000000 ) ) ;
#13 = DIRECTION ( 'NONE',  ( 0.000000000000000000, 0.000000000000000000, 1.000000000000000000 ) ) ;
#14 = CC_DESIGN_PERSON_AND_ORGANIZATION_ASSIGNMENT ( #283, #163, ( #282 ) ) ;
#15 = DIRECTION ( 'NONE',  ( 1.000000000000000000, 0.000000000000000000, -0.000000000000000000 ) ) ;
#16 = DIRECTION ( 'NONE',  ( -0.000000000000000000, -0.000000000000000000, -1.000000000000000000 ) ) ;
#17 = CARTESIAN_POINT ( 'NONE',  ( 0.000000000000000000, 0.000000000000000000, 0.000000000000000000 ) ) ;
#18 = DIRECTION ( 'NONE',  ( -1.000000000000000000, 0.000000000000000000, 0.000000000000000000 ) ) ;
#19 = CARTESIAN_POINT ( 'NONE',  ( -2.600000000000000089, 0.000000000000000000, 163.0000000000000000 ) ) ;
#20 = DIRECTION ( 'NONE',  ( 1.000000000000000000, 0.000000000000000000, 0.000000000000000000 ) ) ;
#21 = CARTESIAN_POINT ( 'NONE',  ( -5.000000000000000000, 0.000000000000000000, 0.000000000000000000 ) ) ;
#22 = DATE_TIME_ROLE ( 'creation_date' ) ;
#23 = DIRECTION ( 'NONE',  ( 0.000000000000000000, 0.000000000000000000, 1.000000000000000000 ) ) ;
#24 = PERSON_AND_ORGANIZATION_ROLE ( 'creator' ) ;
#25 = AXIS2_PLACEMENT_3D ( 'NONE', #269, #128, #126 ) ;
#26 = APPROVAL_PERSON_ORGANIZATION ( #256, #99, #213 ) ;
#27 = PERSON_AND_ORGANIZATION ( #139, #122 ) ;
#28 = ORIENTED_EDGE ( 'NONE', *, *, #136, .T. ) ;
#29 = EDGE_CURVE ( 'NONE', #214, #277, #192, .T. ) ;
#30 = CIRCLE ( 'NONE', #59, 5.000000000000000000 ) ;
#31 = MANIFOLD_SOLID_BREP ( 'Zaoblit1', #74 ) ;
#32 = AXIS2_PLACEMENT_3D ( 'NONE', #39, #132, #227 ) ;
#33 = APPROVAL ( #306, 'NEURÈENÝ' ) ;
#34 =( GEOMETRIC_REPRESENTATION_CONTEXT ( 3 ) GLOBAL_UNCERTAINTY_ASSIGNED_CONTEXT ( ( #272 ) ) GLOBAL_UNIT_ASSIGNED_CONTEXT ( ( #274, #150, #47 ) ) REPRESENTATION_CONTEXT ( 'NONE', 'WORKASPACE' ) );
#35 = ORIENTED_EDGE ( 'NONE', *, *, #116, .F. ) ;
#36 = ADVANCED_FACE ( 'NONE', ( #89 ), #226, .T. ) ;
#37 = VERTEX_POINT ( 'NONE', #177 ) ;
#38 = ORIENTED_EDGE ( 'NONE', *, *, #133, .T. ) ;
#39 = CARTESIAN_POINT ( 'NONE',  ( 0.000000000000000000, 0.000000000000000000, 3.000000000000000000 ) ) ;
#40 = DIRECTION ( 'NONE',  ( 1.000000000000000000, 0.000000000000000000, -0.000000000000000000 ) ) ;
#41 = CYLINDRICAL_SURFACE ( 'NONE', #266, 5.000000000000000000 ) ;
#42 = DIRECTION ( 'NONE',  ( -0.000000000000000000, -0.000000000000000000, -1.000000000000000000 ) ) ;
#43 = DIRECTION ( 'NONE',  ( 1.000000000000000000, 0.000000000000000000, 0.000000000000000000 ) ) ;
#44 = CARTESIAN_POINT ( 'NONE',  ( 0.000000000000000000, 0.000000000000000000, 163.0000000000000000 ) ) ;
#45 = CARTESIAN_POINT ( 'NONE',  ( -2.600000000000000089, 0.000000000000000000, 3.200000000000008171 ) ) ;
#46 = FACE_OUTER_BOUND ( 'NONE', #258, .T. ) ;
#47 =( NAMED_UNIT ( * ) SI_UNIT ( $, .STERADIAN. ) SOLID_ANGLE_UNIT ( ) );
#48 = CIRCLE ( 'NONE', #56, 2.600000000000000089 ) ;
#49 = PERSON_AND_ORGANIZATION_ROLE ( 'design_owner' ) ;
#50 = SHAPE_DEFINITION_REPRESENTATION ( #262, #95 ) ;
#51 = APPLICATION_PROTOCOL_DEFINITION ( 'international standard', 'config_control_design', 1994, #160 ) ;
#52 = COORDINATED_UNIVERSAL_TIME_OFFSET ( 1, 0, .AHEAD. ) ;
#53 = CIRCLE ( 'NONE', #25, 2.600000000000000089 ) ;
#54 = CIRCLE ( 'NONE', #238, 5.000000000000000000 ) ;
#55 = ORIENTED_EDGE ( 'NONE', *, *, #133, .F. ) ;
#56 = AXIS2_PLACEMENT_3D ( 'NONE', #268, #13, #241 ) ;
#57 = EDGE_CURVE ( 'NONE', #37, #164, #30, .T. ) ;
#58 = CARTESIAN_POINT ( 'NONE',  ( -2.600000000000000089, 0.000000000000000000, 163.0000000000000000 ) ) ;
#59 = AXIS2_PLACEMENT_3D ( 'NONE', #83, #240, #197 ) ;
#60 = ORIENTED_EDGE ( 'NONE', *, *, #105, .T. ) ;
#61 = DIRECTION ( 'NONE',  ( 0.000000000000000000, 0.000000000000000000, 1.000000000000000000 ) ) ;
#62 = EDGE_CURVE ( 'NONE', #78, #214, #53, .T. ) ;
#63 = ORIENTED_EDGE ( 'NONE', *, *, #105, .F. ) ;
#64 = CARTESIAN_POINT ( 'NONE',  ( -2.799999999999999822, 3.429011037612588783E-16, 3.200000000000008171 ) ) ;
#65 = DIRECTION ( 'NONE',  ( 1.000000000000000000, 0.000000000000000000, 0.000000000000000000 ) ) ;
#66 = DIRECTION ( 'NONE',  ( 0.000000000000000000, 0.000000000000000000, 1.000000000000000000 ) ) ;
#67 = APPROVAL_PERSON_ORGANIZATION ( #72, #33, #254 ) ;
#68 = COORDINATED_UNIVERSAL_TIME_OFFSET ( 1, 0, .AHEAD. ) ;
#69 = APPROVAL_STATUS ( 'not_yet_approved' ) ;
#70 = CALENDAR_DATE ( 2022, 7, 7 ) ;
#71 = AXIS2_PLACEMENT_3D ( 'NONE', #108, #199, #176 ) ;
#72 = PERSON_AND_ORGANIZATION ( #139, #122 ) ;
#73 = ORIENTED_EDGE ( 'NONE', *, *, #57, .T. ) ;
#74 = CLOSED_SHELL ( 'NONE', ( #159, #244, #239, #207, #303, #284, #156, #36, #250 ) ) ;
#75 = EDGE_LOOP ( 'NONE', ( #35, #2, #4, #212 ) ) ;
#76 = AXIS2_PLACEMENT_3D ( 'NONE', #243, #61, #15 ) ;
#77 = VERTEX_POINT ( 'NONE', #220 ) ;
#78 = VERTEX_POINT ( 'NONE', #58 ) ;
#79 = ORIENTED_EDGE ( 'NONE', *, *, #221, .T. ) ;
#80 = AXIS2_PLACEMENT_3D ( 'NONE', #92, #247, #297 ) ;
#81 = CIRCLE ( 'NONE', #245, 2.600000000000000089 ) ;
#82 = DIRECTION ( 'NONE',  ( -0.000000000000000000, -0.000000000000000000, -1.000000000000000000 ) ) ;
#83 = CARTESIAN_POINT ( 'NONE',  ( 0.000000000000000000, 0.000000000000000000, 3.000000000000000000 ) ) ;
#84 = FACE_OUTER_BOUND ( 'NONE', #120, .T. ) ;
#85 = LINE ( 'NONE', #124, #232 ) ;
#86 = DIRECTION ( 'NONE',  ( 0.000000000000000000, 0.000000000000000000, -1.000000000000000000 ) ) ;
#87 = CC_DESIGN_APPROVAL ( #228, ( #282 ) ) ;
#88 = CC_DESIGN_DATE_AND_TIME_ASSIGNMENT ( #210, #22, ( #142 ) ) ;
#89 = FACE_OUTER_BOUND ( 'NONE', #189, .T. ) ;
#90 = CYLINDRICAL_SURFACE ( 'NONE', #80, 5.000000000000000000 ) ;
#91 = LINE ( 'NONE', #218, #265 ) ;
#92 = CARTESIAN_POINT ( 'NONE',  ( 0.000000000000000000, 0.000000000000000000, 3.000000000000000000 ) ) ;
#93 = EDGE_CURVE ( 'NONE', #37, #101, #85, .T. ) ;
#94 = CYLINDRICAL_SURFACE ( 'NONE', #110, 2.600000000000000089 ) ;
#95 = ADVANCED_BREP_SHAPE_REPRESENTATION ( '0ec8', ( #31, #217 ), #34 ) ;
#96 = CALENDAR_DATE ( 2022, 7, 7 ) ;
#97 = CALENDAR_DATE ( 2022, 7, 7 ) ;
#98 = AXIS2_PLACEMENT_3D ( 'NONE', #17, #219, #296 ) ;
#99 = APPROVAL ( #69, 'NEURÈENÝ' ) ;
#100 = CARTESIAN_POINT ( 'NONE',  ( 0.000000000000000000, 0.000000000000000000, 0.000000000000000000 ) ) ;
#101 = VERTEX_POINT ( 'NONE', #216 ) ;
#102 = ORIENTED_EDGE ( 'NONE', *, *, #62, .T. ) ;
#103 = ORIENTED_EDGE ( 'NONE', *, *, #29, .T. ) ;
#104 = ORIENTED_EDGE ( 'NONE', *, *, #7, .F. ) ;
#105 = EDGE_CURVE ( 'NONE', #123, #77, #191, .T. ) ;
#106 = DIRECTION ( 'NONE',  ( -0.000000000000000000, -0.000000000000000000, -1.000000000000000000 ) ) ;
#107 = CARTESIAN_POINT ( 'NONE',  ( 2.799999999999999822, 0.000000000000000000, 3.000000000000004441 ) ) ;
#108 = CARTESIAN_POINT ( 'NONE',  ( 0.000000000000000000, 0.000000000000000000, 3.000000000000000000 ) ) ;
#109 = FACE_OUTER_BOUND ( 'NONE', #287, .T. ) ;
#110 = AXIS2_PLACEMENT_3D ( 'NONE', #203, #106, #279 ) ;
#111 = CARTESIAN_POINT ( 'NONE',  ( 0.000000000000000000, 0.000000000000000000, 3.000000000000000000 ) ) ;
#112 = EDGE_CURVE ( 'NONE', #166, #277, #48, .T. ) ;
#113 = ORIENTED_EDGE ( 'NONE', *, *, #167, .F. ) ;
#114 = DIRECTION ( 'NONE',  ( 0.000000000000000000, 0.000000000000000000, 1.000000000000000000 ) ) ;
#115 = FACE_OUTER_BOUND ( 'NONE', #75, .T. ) ;
#116 = EDGE_CURVE ( 'NONE', #166, #77, #215, .T. ) ;
#117 = CALENDAR_DATE ( 2022, 7, 7 ) ;
#118 = DATE_AND_TIME ( #97, #202 ) ;
#119 = CC_DESIGN_PERSON_AND_ORGANIZATION_ASSIGNMENT ( #157, #24, ( #252 ) ) ;
#120 = EDGE_LOOP ( 'NONE', ( #264, #104 ) ) ;
#121 = AXIS2_PLACEMENT_3D ( 'NONE', #151, #130, #18 ) ;
#122 = ORGANIZATION ( 'NEURÈENÝ', 'NEURÈENÝ', '' ) ;
#123 = VERTEX_POINT ( 'NONE', #107 ) ;
#124 = CARTESIAN_POINT ( 'NONE',  ( 5.000000000000000000, 6.123233995736766282E-16, 3.000000000000000000 ) ) ;
#125 = DIRECTION ( 'NONE',  ( -1.000000000000000000, 1.224646799147353207E-16, 0.000000000000000000 ) ) ;
#126 = DIRECTION ( 'NONE',  ( 1.000000000000000000, 0.000000000000000000, 0.000000000000000000 ) ) ;
#127 = FACE_OUTER_BOUND ( 'NONE', #173, .T. ) ;
#128 = DIRECTION ( 'NONE',  ( 0.000000000000000000, 0.000000000000000000, 1.000000000000000000 ) ) ;
#129 = CIRCLE ( 'NONE', #302, 2.600000000000000089 ) ;
#130 = DIRECTION ( 'NONE',  ( -0.000000000000000000, -0.000000000000000000, -1.000000000000000000 ) ) ;
#131 = TOROIDAL_SURFACE ( 'NONE', #292, 2.799999999999999822, 0.2000000000000000111 ) ;
#132 = DIRECTION ( 'NONE',  ( -0.000000000000000000, -0.000000000000000000, -1.000000000000000000 ) ) ;
#133 = EDGE_CURVE ( 'NONE', #164, #307, #91, .T. ) ;
#134 = CARTESIAN_POINT ( 'NONE',  ( 0.000000000000000000, 0.000000000000000000, 3.200000000000008171 ) ) ;
#135 = APPROVAL_DATE_TIME ( #185, #33 ) ;
#136 = EDGE_CURVE ( 'NONE', #214, #78, #129, .T. ) ;
#137 = PERSON_AND_ORGANIZATION_ROLE ( 'creator' ) ;
#138 = ORIENTED_EDGE ( 'NONE', *, *, #168, .T. ) ;
#139 = PERSON ( 'NEURÈENÝ', 'NEURÈENÝ', 'NEURÈENÝ', ('NEURÈENÝ'), ('NEURÈENÝ'), ('NEURÈENÝ') ) ;
#140 = ORIENTED_EDGE ( 'NONE', *, *, #112, .T. ) ;
#141 = APPROVAL_PERSON_ORGANIZATION ( #155, #228, #161 ) ;
#142 = PRODUCT_DEFINITION ( 'NEZNÁMÝ', '', #252, #8 ) ;
#143 = ORIENTED_EDGE ( 'NONE', *, *, #93, .T. ) ;
#144 = ORIENTED_EDGE ( 'NONE', *, *, #193, .F. ) ;
#145 = CARTESIAN_POINT ( 'NONE',  ( 2.600000000000000089, 3.184081677783118191E-16, 163.0000000000000000 ) ) ;
#146 = ORIENTED_EDGE ( 'NONE', *, *, #29, .F. ) ;
#147 = LOCAL_TIME ( 12, 17, 59.00000000000000000, #184 ) ;
#148 = DIRECTION ( 'NONE',  ( 0.000000000000000000, -1.000000000000000000, 0.000000000000000000 ) ) ;
#149 = ORIENTED_EDGE ( 'NONE', *, *, #112, .F. ) ;
#150 =( NAMED_UNIT ( * ) PLANE_ANGLE_UNIT ( ) SI_UNIT ( $, .RADIAN. ) );
#151 = CARTESIAN_POINT ( 'NONE',  ( 0.000000000000000000, 0.000000000000000000, 163.0000000000000000 ) ) ;
#152 = VECTOR ( 'NONE', #271, 1000.000000000000000 ) ;
#153 = FACE_BOUND ( 'NONE', #285, .T. ) ;
#154 = AXIS2_PLACEMENT_3D ( 'NONE', #178, #180, #208 ) ;
#155 = PERSON_AND_ORGANIZATION ( #139, #122 ) ;
#156 = ADVANCED_FACE ( 'NONE', ( #109 ), #175, .T. ) ;
#157 = PERSON_AND_ORGANIZATION ( #139, #122 ) ;
#158 = CIRCLE ( 'NONE', #242, 5.000000000000000000 ) ;
#159 = ADVANCED_FACE ( 'NONE', ( #46 ), #131, .F. ) ;
#160 = APPLICATION_CONTEXT ( 'configuration controlled 3d designs of mechanical parts and assemblies' ) ;
#161 = APPROVAL_ROLE ( '' ) ;
#162 = CC_DESIGN_APPROVAL ( #33, ( #252 ) ) ;
#163 = PERSON_AND_ORGANIZATION_ROLE ( 'classification_officer' ) ;
#164 = VERTEX_POINT ( 'NONE', #251 ) ;
#165 = TOROIDAL_SURFACE ( 'NONE', #154, 2.799999999999999822, 0.2000000000000000111 ) ;
#166 = VERTEX_POINT ( 'NONE', #45 ) ;
#167 = EDGE_CURVE ( 'NONE', #78, #166, #182, .T. ) ;
#168 = EDGE_CURVE ( 'NONE', #77, #123, #259, .T. ) ;
#169 = ORIENTED_EDGE ( 'NONE', *, *, #7, .T. ) ;
#170 = ORIENTED_EDGE ( 'NONE', *, *, #221, .F. ) ;
#171 = DIRECTION ( 'NONE',  ( 1.000000000000000000, 0.000000000000000000, 0.000000000000000000 ) ) ;
#172 = CC_DESIGN_PERSON_AND_ORGANIZATION_ASSIGNMENT ( #299, #49, ( #1 ) ) ;
#173 = EDGE_LOOP ( 'NONE', ( #79, #73 ) ) ;
#174 = DIRECTION ( 'NONE',  ( -0.000000000000000000, -0.000000000000000000, -1.000000000000000000 ) ) ;
#175 = CYLINDRICAL_SURFACE ( 'NONE', #121, 2.600000000000000089 ) ;
#176 = DIRECTION ( 'NONE',  ( 1.000000000000000000, 0.000000000000000000, -0.000000000000000000 ) ) ;
#177 = CARTESIAN_POINT ( 'NONE',  ( 5.000000000000000000, 6.123233995736766282E-16, 3.000000000000000000 ) ) ;
#178 = CARTESIAN_POINT ( 'NONE',  ( 0.000000000000000000, 0.000000000000000000, 3.200000000000008171 ) ) ;
#179 = EDGE_LOOP ( 'NONE', ( #237, #103, #236, #113 ) ) ;
#180 = DIRECTION ( 'NONE',  ( 0.000000000000000000, 0.000000000000000000, 1.000000000000000000 ) ) ;
#181 = AXIS2_PLACEMENT_3D ( 'NONE', #196, #148, #86 ) ;
#182 = LINE ( 'NONE', #19, #152 ) ;
#183 = SECURITY_CLASSIFICATION_LEVEL ( 'unclassified' ) ;
#184 = COORDINATED_UNIVERSAL_TIME_OFFSET ( 1, 0, .AHEAD. ) ;
#185 = DATE_AND_TIME ( #235, #298 ) ;
#186 = CC_DESIGN_SECURITY_CLASSIFICATION ( #282, ( #252 ) ) ;
#187 = COORDINATED_UNIVERSAL_TIME_OFFSET ( 1, 0, .AHEAD. ) ;
#188 = COORDINATED_UNIVERSAL_TIME_OFFSET ( 1, 0, .AHEAD. ) ;
#189 = EDGE_LOOP ( 'NONE', ( #102, #28 ) ) ;
#190 = EDGE_LOOP ( 'NONE', ( #246, #143, #169, #55 ) ) ;
#191 = CIRCLE ( 'NONE', #270, 2.799999999999999822 ) ;
#192 = LINE ( 'NONE', #200, #198 ) ;
#193 = EDGE_CURVE ( 'NONE', #277, #123, #10, .T. ) ;
#194 = ORIENTED_EDGE ( 'NONE', *, *, #116, .T. ) ;
#195 = PRODUCT_RELATED_PRODUCT_CATEGORY ( 'detail', '', ( #1 ) ) ;
#196 = CARTESIAN_POINT ( 'NONE',  ( 2.799999999999999822, 0.000000000000000000, 3.200000000000008171 ) ) ;
#197 = DIRECTION ( 'NONE',  ( 1.000000000000000000, 0.000000000000000000, 0.000000000000000000 ) ) ;
#198 = VECTOR ( 'NONE', #42, 1000.000000000000000 ) ;
#199 = DIRECTION ( 'NONE',  ( 0.000000000000000000, 0.000000000000000000, 1.000000000000000000 ) ) ;
#200 = CARTESIAN_POINT ( 'NONE',  ( 2.600000000000000089, 3.184081677783118191E-16, 163.0000000000000000 ) ) ;
#201 = CIRCLE ( 'NONE', #98, 5.000000000000000000 ) ;
#202 = LOCAL_TIME ( 12, 17, 59.00000000000000000, #188 ) ;
#203 = CARTESIAN_POINT ( 'NONE',  ( 0.000000000000000000, 0.000000000000000000, 163.0000000000000000 ) ) ;
#204 = EDGE_CURVE ( 'NONE', #307, #101, #201, .T. ) ;
#205 = DIRECTION ( 'NONE',  ( 1.224646799147353207E-16, 1.000000000000000000, -0.000000000000000000 ) ) ;
#206 = FACE_OUTER_BOUND ( 'NONE', #190, .T. ) ;
#207 = ADVANCED_FACE ( 'NONE', ( #222 ), #90, .T. ) ;
#208 = DIRECTION ( 'NONE',  ( 1.000000000000000000, 0.000000000000000000, 0.000000000000000000 ) ) ;
#209 = APPROVAL_DATE_TIME ( #280, #99 ) ;
#210 = DATE_AND_TIME ( #117, #260 ) ;
#211 = DATE_TIME_ROLE ( 'classification_date' ) ;
#212 = ORIENTED_EDGE ( 'NONE', *, *, #168, .F. ) ;
#213 = APPROVAL_ROLE ( '' ) ;
#214 = VERTEX_POINT ( 'NONE', #145 ) ;
#215 = CIRCLE ( 'NONE', #224, 0.2000000000000000944 ) ;
#216 = CARTESIAN_POINT ( 'NONE',  ( 5.000000000000000000, 6.123233995736766282E-16, 0.000000000000000000 ) ) ;
#217 = AXIS2_PLACEMENT_3D ( 'NONE', #100, #23, #257 ) ;
#218 = CARTESIAN_POINT ( 'NONE',  ( -5.000000000000000000, 0.000000000000000000, 3.000000000000000000 ) ) ;
#219 = DIRECTION ( 'NONE',  ( 0.000000000000000000, 0.000000000000000000, 1.000000000000000000 ) ) ;
#220 = CARTESIAN_POINT ( 'NONE',  ( -2.799999999999999822, 3.429011037612589276E-16, 3.000000000000004441 ) ) ;
#221 = EDGE_CURVE ( 'NONE', #164, #37, #54, .T. ) ;
#222 = FACE_OUTER_BOUND ( 'NONE', #295, .T. ) ;
#223 = CARTESIAN_POINT ( 'NONE',  ( 0.000000000000000000, 0.000000000000000000, 3.000000000000000000 ) ) ;
#224 = AXIS2_PLACEMENT_3D ( 'NONE', #64, #205, #125 ) ;
#225 = CARTESIAN_POINT ( 'NONE',  ( 0.000000000000000000, 0.000000000000000000, 3.000000000000000000 ) ) ;
#226 = PLANE ( 'NONE',  #6 ) ;
#227 = DIRECTION ( 'NONE',  ( 1.000000000000000000, 0.000000000000000000, 0.000000000000000000 ) ) ;
#228 = APPROVAL ( #304, 'NEURÈENÝ' ) ;
#229 = DIRECTION ( 'NONE',  ( 0.000000000000000000, 0.000000000000000000, 1.000000000000000000 ) ) ;
#230 = PLANE ( 'NONE',  #76 ) ;
#231 = DATE_AND_TIME ( #70, #147 ) ;
#232 = VECTOR ( 'NONE', #293, 1000.000000000000000 ) ;
#233 = PERSON_AND_ORGANIZATION_ROLE ( 'design_supplier' ) ;
#234 = MECHANICAL_CONTEXT ( 'NONE', #160, 'mechanical' ) ;
#235 = CALENDAR_DATE ( 2022, 7, 7 ) ;
#236 = ORIENTED_EDGE ( 'NONE', *, *, #286, .T. ) ;
#237 = ORIENTED_EDGE ( 'NONE', *, *, #136, .F. ) ;
#238 = AXIS2_PLACEMENT_3D ( 'NONE', #225, #114, #276 ) ;
#239 = ADVANCED_FACE ( 'NONE', ( #206 ), #41, .T. ) ;
#240 = DIRECTION ( 'NONE',  ( 0.000000000000000000, 0.000000000000000000, 1.000000000000000000 ) ) ;
#241 = DIRECTION ( 'NONE',  ( 1.000000000000000000, 0.000000000000000000, 0.000000000000000000 ) ) ;
#242 = AXIS2_PLACEMENT_3D ( 'NONE', #288, #248, #65 ) ;
#243 = CARTESIAN_POINT ( 'NONE',  ( 0.000000000000000000, 0.000000000000000000, 0.000000000000000000 ) ) ;
#244 = ADVANCED_FACE ( 'NONE', ( #294 ), #94, .T. ) ;
#245 = AXIS2_PLACEMENT_3D ( 'NONE', #278, #66, #43 ) ;
#246 = ORIENTED_EDGE ( 'NONE', *, *, #57, .F. ) ;
#247 = DIRECTION ( 'NONE',  ( -0.000000000000000000, -0.000000000000000000, -1.000000000000000000 ) ) ;
#248 = DIRECTION ( 'NONE',  ( 0.000000000000000000, 0.000000000000000000, 1.000000000000000000 ) ) ;
#249 = ORIENTED_EDGE ( 'NONE', *, *, #167, .T. ) ;
#250 = ADVANCED_FACE ( 'NONE', ( #115 ), #165, .F. ) ;
#251 = CARTESIAN_POINT ( 'NONE',  ( -5.000000000000000000, 0.000000000000000000, 3.000000000000000000 ) ) ;
#252 = PRODUCT_DEFINITION_FORMATION_WITH_SPECIFIED_SOURCE ( 'LIBOVOLNÝ', '', #1, .NOT_KNOWN. ) ;
#253 = PLANE ( 'NONE',  #71 ) ;
#254 = APPROVAL_ROLE ( '' ) ;
#255 = PERSON_AND_ORGANIZATION ( #139, #122 ) ;
#256 = PERSON_AND_ORGANIZATION ( #139, #122 ) ;
#257 = DIRECTION ( 'NONE',  ( 1.000000000000000000, 0.000000000000000000, 0.000000000000000000 ) ) ;
#258 = EDGE_LOOP ( 'NONE', ( #149, #194, #63, #144 ) ) ;
#259 = CIRCLE ( 'NONE', #32, 2.799999999999999822 ) ;
#260 = LOCAL_TIME ( 12, 17, 59.00000000000000000, #68 ) ;
#261 = ORIENTED_EDGE ( 'NONE', *, *, #93, .F. ) ;
#262 = PRODUCT_DEFINITION_SHAPE ( 'NONE', 'NONE',  #142 ) ;
#263 = CC_DESIGN_PERSON_AND_ORGANIZATION_ASSIGNMENT ( #255, #233, ( #252 ) ) ;
#264 = ORIENTED_EDGE ( 'NONE', *, *, #204, .F. ) ;
#265 = VECTOR ( 'NONE', #16, 1000.000000000000000 ) ;
#266 = AXIS2_PLACEMENT_3D ( 'NONE', #111, #174, #12 ) ;
#267 = CC_DESIGN_APPROVAL ( #99, ( #142 ) ) ;
#268 = CARTESIAN_POINT ( 'NONE',  ( 0.000000000000000000, 0.000000000000000000, 3.200000000000008171 ) ) ;
#269 = CARTESIAN_POINT ( 'NONE',  ( 0.000000000000000000, 0.000000000000000000, 163.0000000000000000 ) ) ;
#270 = AXIS2_PLACEMENT_3D ( 'NONE', #223, #82, #171 ) ;
#271 = DIRECTION ( 'NONE',  ( -0.000000000000000000, -0.000000000000000000, -1.000000000000000000 ) ) ;
#272 = UNCERTAINTY_MEASURE_WITH_UNIT (LENGTH_MEASURE( 1.000000000000000082E-05 ), #274, 'distance_accuracy_value', 'NONE');
#273 = CARTESIAN_POINT ( 'NONE',  ( 0.000000000000000000, 0.000000000000000000, 163.0000000000000000 ) ) ;
#274 =( LENGTH_UNIT ( ) NAMED_UNIT ( * ) SI_UNIT ( .MILLI., .METRE. ) );
#275 = DIRECTION ( 'NONE',  ( 0.000000000000000000, 0.000000000000000000, 1.000000000000000000 ) ) ;
#276 = DIRECTION ( 'NONE',  ( 1.000000000000000000, 0.000000000000000000, 0.000000000000000000 ) ) ;
#277 = VERTEX_POINT ( 'NONE', #290 ) ;
#278 = CARTESIAN_POINT ( 'NONE',  ( 0.000000000000000000, 0.000000000000000000, 3.200000000000008171 ) ) ;
#279 = DIRECTION ( 'NONE',  ( -1.000000000000000000, 0.000000000000000000, 0.000000000000000000 ) ) ;
#280 = DATE_AND_TIME ( #96, #3 ) ;
#281 = APPROVAL_DATE_TIME ( #231, #228 ) ;
#282 = SECURITY_CLASSIFICATION ( '', '', #183 ) ;
#283 = PERSON_AND_ORGANIZATION ( #139, #122 ) ;
#284 = ADVANCED_FACE ( 'NONE', ( #84 ), #230, .F. ) ;
#285 = EDGE_LOOP ( 'NONE', ( #60, #138 ) ) ;
#286 = EDGE_CURVE ( 'NONE', #277, #166, #81, .T. ) ;
#287 = EDGE_LOOP ( 'NONE', ( #146, #305, #249, #140 ) ) ;
#288 = CARTESIAN_POINT ( 'NONE',  ( 0.000000000000000000, 0.000000000000000000, 0.000000000000000000 ) ) ;
#289 = CC_DESIGN_PERSON_AND_ORGANIZATION_ASSIGNMENT ( #27, #137, ( #142 ) ) ;
#290 = CARTESIAN_POINT ( 'NONE',  ( 2.600000000000000089, 3.184081677783118191E-16, 3.200000000000008171 ) ) ;
#291 = DIRECTION ( 'NONE',  ( 1.000000000000000000, 0.000000000000000000, 0.000000000000000000 ) ) ;
#292 = AXIS2_PLACEMENT_3D ( 'NONE', #134, #229, #20 ) ;
#293 = DIRECTION ( 'NONE',  ( -0.000000000000000000, -0.000000000000000000, -1.000000000000000000 ) ) ;
#294 = FACE_OUTER_BOUND ( 'NONE', #179, .T. ) ;
#295 = EDGE_LOOP ( 'NONE', ( #261, #170, #38, #11 ) ) ;
#296 = DIRECTION ( 'NONE',  ( 1.000000000000000000, 0.000000000000000000, 0.000000000000000000 ) ) ;
#297 = DIRECTION ( 'NONE',  ( -1.000000000000000000, 0.000000000000000000, 0.000000000000000000 ) ) ;
#298 = LOCAL_TIME ( 12, 17, 59.00000000000000000, #52 ) ;
#299 = PERSON_AND_ORGANIZATION ( #139, #122 ) ;
#300 = APPLICATION_CONTEXT ( 'configuration controlled 3d designs of mechanical parts and assemblies' ) ;
#301 = APPLICATION_PROTOCOL_DEFINITION ( 'international standard', 'config_control_design', 1994, #300 ) ;
#302 = AXIS2_PLACEMENT_3D ( 'NONE', #273, #275, #291 ) ;
#303 = ADVANCED_FACE ( 'NONE', ( #153, #127 ), #253, .T. ) ;
#304 = APPROVAL_STATUS ( 'not_yet_approved' ) ;
#305 = ORIENTED_EDGE ( 'NONE', *, *, #62, .F. ) ;
#306 = APPROVAL_STATUS ( 'not_yet_approved' ) ;
#307 = VERTEX_POINT ( 'NONE', #21 ) ;
ENDSEC;
END-ISO-10303-21;
