ISO-10303-21;
HEADER;
FILE_DESCRIPTION (( 'STEP AP203' ),
    '1' );
FILE_NAME ('ecdb.STEP',
    '2022-07-07T09:48:18',
    ( '' ),
    ( '' ),
    'SwSTEP 2.0',
    'SolidWorks 2019',
    '' );
FILE_SCHEMA (( 'CONFIG_CONTROL_DESIGN' ));
ENDSEC;

DATA;
#1 = PLANE ( 'NONE',  #148 ) ;
#2 = CYLINDRICAL_SURFACE ( 'NONE', #204, 5.500000000000000000 ) ;
#3 = EDGE_LOOP ( 'NONE', ( #175, #50, #173, #30 ) ) ;
#4 = EDGE_LOOP ( 'NONE', ( #191, #54, #265, #153 ) ) ;
#5 = PERSON ( 'NEURÈENÝ', 'NEURÈENÝ', 'NEURÈENÝ', ('NEURÈENÝ'), ('NEURÈENÝ'), ('NEURÈENÝ') ) ;
#6 = CARTESIAN_POINT ( 'NONE',  ( 0.000000000000000000, 0.000000000000000000, 635.0000000000000000 ) ) ;
#7 = CYLINDRICAL_SURFACE ( 'NONE', #69, 8.000000000000000000 ) ;
#8 = DIRECTION ( 'NONE',  ( 0.000000000000000000, 0.000000000000000000, 1.000000000000000000 ) ) ;
#9 = VECTOR ( 'NONE', #249, 1000.000000000000000 ) ;
#10 = DIRECTION ( 'NONE',  ( 1.000000000000000000, 0.000000000000000000, -0.000000000000000000 ) ) ;
#11 = ADVANCED_FACE ( 'NONE', ( #201 ), #252, .F. ) ;
#12 = FACE_OUTER_BOUND ( 'NONE', #77, .T. ) ;
#13 = DIRECTION ( 'NONE',  ( 1.000000000000000000, 0.000000000000000000, 0.000000000000000000 ) ) ;
#14 = CARTESIAN_POINT ( 'NONE',  ( -8.000000000000000000, 0.000000000000000000, 5.000000000000000000 ) ) ;
#15 = CC_DESIGN_PERSON_AND_ORGANIZATION_ASSIGNMENT ( #257, #186, ( #137 ) ) ;
#16 = APPROVAL_ROLE ( '' ) ;
#17 = CALENDAR_DATE ( 2022, 7, 7 ) ;
#18 = CIRCLE ( 'NONE', #104, 0.1999999999999996503 ) ;
#19 = AXIS2_PLACEMENT_3D ( 'NONE', #35, #8, #138 ) ;
#20 = CARTESIAN_POINT ( 'NONE',  ( 0.000000000000000000, 0.000000000000000000, 0.000000000000000000 ) ) ;
#21 = FACE_BOUND ( 'NONE', #90, .T. ) ;
#22 = CIRCLE ( 'NONE', #65, 8.000000000000000000 ) ;
#23 = CC_DESIGN_SECURITY_CLASSIFICATION ( #168, ( #200 ) ) ;
#24 = CARTESIAN_POINT ( 'NONE',  ( 0.000000000000000000, 0.000000000000000000, 5.000000000000000000 ) ) ;
#25 = DESIGN_CONTEXT ( 'detailed design', #211, 'design' ) ;
#26 = ORIENTED_EDGE ( 'NONE', *, *, #107, .T. ) ;
#27 = DIRECTION ( 'NONE',  ( -0.000000000000000000, -0.000000000000000000, -1.000000000000000000 ) ) ;
#28 = CIRCLE ( 'NONE', #234, 5.699999999999999289 ) ;
#29 = EDGE_CURVE ( 'NONE', #52, #144, #181, .T. ) ;
#30 = ORIENTED_EDGE ( 'NONE', *, *, #99, .T. ) ;
#31 = AXIS2_PLACEMENT_3D ( 'NONE', #179, #34, #10 ) ;
#32 = DIRECTION ( 'NONE',  ( 0.000000000000000000, 0.000000000000000000, 1.000000000000000000 ) ) ;
#33 = DIRECTION ( 'NONE',  ( 0.000000000000000000, 0.000000000000000000, 1.000000000000000000 ) ) ;
#34 = DIRECTION ( 'NONE',  ( 0.000000000000000000, 0.000000000000000000, 1.000000000000000000 ) ) ;
#35 = CARTESIAN_POINT ( 'NONE',  ( 0.000000000000000000, 0.000000000000000000, 5.199999999999982414 ) ) ;
#36 = DIRECTION ( 'NONE',  ( 0.000000000000000000, 0.000000000000000000, 1.000000000000000000 ) ) ;
#37 = PERSON_AND_ORGANIZATION ( #5, #253 ) ;
#38 = CC_DESIGN_PERSON_AND_ORGANIZATION_ASSIGNMENT ( #150, #124, ( #168 ) ) ;
#39 = CLOSED_SHELL ( 'NONE', ( #132, #62, #163, #196, #87, #152, #280, #156, #11 ) ) ;
#40 = AXIS2_PLACEMENT_3D ( 'NONE', #165, #94, #91 ) ;
#41 = CARTESIAN_POINT ( 'NONE',  ( -5.699999999999999289, 6.980486755139912122E-16, 5.199999999999982414 ) ) ;
#42 = DIRECTION ( 'NONE',  ( 0.000000000000000000, 0.000000000000000000, 1.000000000000000000 ) ) ;
#43 = APPROVAL ( #127, 'NEURÈENÝ' ) ;
#44 = LOCAL_TIME ( 11, 48, 18.00000000000000000, #116 ) ;
#45 = CALENDAR_DATE ( 2022, 7, 7 ) ;
#46 = ORIENTED_EDGE ( 'NONE', *, *, #67, .F. ) ;
#47 = CALENDAR_DATE ( 2022, 7, 7 ) ;
#48 = EDGE_LOOP ( 'NONE', ( #275, #125, #160, #140 ) ) ;
#49 = CALENDAR_DATE ( 2022, 7, 7 ) ;
#50 = ORIENTED_EDGE ( 'NONE', *, *, #284, .F. ) ;
#51 = PERSON_AND_ORGANIZATION ( #5, #253 ) ;
#52 = VERTEX_POINT ( 'NONE', #130 ) ;
#53 = ORIENTED_EDGE ( 'NONE', *, *, #29, .T. ) ;
#54 = ORIENTED_EDGE ( 'NONE', *, *, #294, .T. ) ;
#55 = CARTESIAN_POINT ( 'NONE',  ( -5.500000000000000000, 0.000000000000000000, 635.0000000000000000 ) ) ;
#56 = CARTESIAN_POINT ( 'NONE',  ( -8.000000000000000000, 0.000000000000000000, 5.000000000000000000 ) ) ;
#57 = CARTESIAN_POINT ( 'NONE',  ( 5.699999999999999289, 0.000000000000000000, 5.199999999999982414 ) ) ;
#58 = EDGE_CURVE ( 'NONE', #73, #241, #225, .T. ) ;
#59 = FACE_OUTER_BOUND ( 'NONE', #4, .T. ) ;
#60 = LOCAL_TIME ( 11, 48, 18.00000000000000000, #218 ) ;
#61 = CARTESIAN_POINT ( 'NONE',  ( 0.000000000000000000, 0.000000000000000000, 0.000000000000000000 ) ) ;
#62 = ADVANCED_FACE ( 'NONE', ( #219 ), #2, .T. ) ;
#63 = FACE_OUTER_BOUND ( 'NONE', #3, .T. ) ;
#64 = APPROVAL_STATUS ( 'not_yet_approved' ) ;
#65 = AXIS2_PLACEMENT_3D ( 'NONE', #71, #122, #170 ) ;
#66 = AXIS2_PLACEMENT_3D ( 'NONE', #61, #295, #164 ) ;
#67 = EDGE_CURVE ( 'NONE', #289, #283, #22, .T. ) ;
#68 =( NAMED_UNIT ( * ) PLANE_ANGLE_UNIT ( ) SI_UNIT ( $, .RADIAN. ) );
#69 = AXIS2_PLACEMENT_3D ( 'NONE', #84, #206, #83 ) ;
#70 = COORDINATED_UNIVERSAL_TIME_OFFSET ( 1, 0, .AHEAD. ) ;
#71 = CARTESIAN_POINT ( 'NONE',  ( 0.000000000000000000, 0.000000000000000000, 5.000000000000000000 ) ) ;
#72 = ORIENTED_EDGE ( 'NONE', *, *, #107, .F. ) ;
#73 = VERTEX_POINT ( 'NONE', #261 ) ;
#74 = LOCAL_TIME ( 11, 48, 18.00000000000000000, #258 ) ;
#75 = VERTEX_POINT ( 'NONE', #237 ) ;
#76 = UNCERTAINTY_MEASURE_WITH_UNIT (LENGTH_MEASURE( 1.000000000000000082E-05 ), #189, 'distance_accuracy_value', 'NONE');
#77 = EDGE_LOOP ( 'NONE', ( #103, #123 ) ) ;
#78 = CARTESIAN_POINT ( 'NONE',  ( -5.699999999999999289, 6.980486755139912122E-16, 4.999999999999991118 ) ) ;
#79 = LINE ( 'NONE', #112, #167 ) ;
#80 = CIRCLE ( 'NONE', #40, 5.500000000000000000 ) ;
#81 = DIRECTION ( 'NONE',  ( 0.000000000000000000, 0.000000000000000000, 1.000000000000000000 ) ) ;
#82 = MANIFOLD_SOLID_BREP ( 'Zaoblit1', #39 ) ;
#83 = DIRECTION ( 'NONE',  ( -1.000000000000000000, 0.000000000000000000, 0.000000000000000000 ) ) ;
#84 = CARTESIAN_POINT ( 'NONE',  ( 0.000000000000000000, 0.000000000000000000, 5.000000000000000000 ) ) ;
#85 = AXIS2_PLACEMENT_3D ( 'NONE', #109, #33, #274 ) ;
#86 = CC_DESIGN_APPROVAL ( #180, ( #200 ) ) ;
#87 = ADVANCED_FACE ( 'NONE', ( #21, #217 ), #1, .T. ) ;
#88 = ORIENTED_EDGE ( 'NONE', *, *, #121, .T. ) ;
#89 = PRODUCT_DEFINITION_SHAPE ( 'NONE', 'NONE',  #95 ) ;
#90 = EDGE_LOOP ( 'NONE', ( #53, #288 ) ) ;
#91 = DIRECTION ( 'NONE',  ( 1.000000000000000000, 0.000000000000000000, 0.000000000000000000 ) ) ;
#92 = APPROVAL_DATE_TIME ( #305, #180 ) ;
#93 = CIRCLE ( 'NONE', #85, 5.500000000000000000 ) ;
#94 = DIRECTION ( 'NONE',  ( 0.000000000000000000, 0.000000000000000000, 1.000000000000000000 ) ) ;
#95 = PRODUCT_DEFINITION ( 'NEZNÁMÝ', '', #200, #25 ) ;
#96 = DIRECTION ( 'NONE',  ( -1.000000000000000000, 0.000000000000000000, 0.000000000000000000 ) ) ;
#97 = ORIENTED_EDGE ( 'NONE', *, *, #294, .F. ) ;
#98 = VERTEX_POINT ( 'NONE', #270 ) ;
#99 = EDGE_CURVE ( 'NONE', #147, #241, #228, .T. ) ;
#100 = APPROVAL_PERSON_ORGANIZATION ( #37, #290, #254 ) ;
#101 = ORIENTED_EDGE ( 'NONE', *, *, #67, .T. ) ;
#102 = ORIENTED_EDGE ( 'NONE', *, *, #126, .F. ) ;
#103 = ORIENTED_EDGE ( 'NONE', *, *, #284, .T. ) ;
#104 = AXIS2_PLACEMENT_3D ( 'NONE', #57, #300, #298 ) ;
#105 = CIRCLE ( 'NONE', #188, 8.000000000000000000 ) ;
#106 = ORIENTED_EDGE ( 'NONE', *, *, #142, .F. ) ;
#107 = EDGE_CURVE ( 'NONE', #283, #75, #79, .T. ) ;
#108 = DIRECTION ( 'NONE',  ( -1.000000000000000000, 0.000000000000000000, 0.000000000000000000 ) ) ;
#109 = CARTESIAN_POINT ( 'NONE',  ( 0.000000000000000000, 0.000000000000000000, 635.0000000000000000 ) ) ;
#110 = CARTESIAN_POINT ( 'NONE',  ( 0.000000000000000000, 0.000000000000000000, 5.199999999999982414 ) ) ;
#111 = AXIS2_PLACEMENT_3D ( 'NONE', #268, #36, #13 ) ;
#112 = CARTESIAN_POINT ( 'NONE',  ( 8.000000000000000000, 9.797174393178825657E-16, 5.000000000000000000 ) ) ;
#113 = CYLINDRICAL_SURFACE ( 'NONE', #193, 8.000000000000000000 ) ;
#114 = LINE ( 'NONE', #55, #244 ) ;
#115 = AXIS2_PLACEMENT_3D ( 'NONE', #20, #255, #304 ) ;
#116 = COORDINATED_UNIVERSAL_TIME_OFFSET ( 1, 0, .AHEAD. ) ;
#117 = EDGE_CURVE ( 'NONE', #73, #195, #93, .T. ) ;
#118 = DATE_AND_TIME ( #17, #286 ) ;
#119 = AXIS2_PLACEMENT_3D ( 'NONE', #245, #32, #131 ) ;
#120 = APPLICATION_PROTOCOL_DEFINITION ( 'international standard', 'config_control_design', 1994, #211 ) ;
#121 = EDGE_CURVE ( 'NONE', #241, #52, #18, .T. ) ;
#122 = DIRECTION ( 'NONE',  ( 0.000000000000000000, 0.000000000000000000, 1.000000000000000000 ) ) ;
#123 = ORIENTED_EDGE ( 'NONE', *, *, #117, .T. ) ;
#124 = PERSON_AND_ORGANIZATION_ROLE ( 'classification_officer' ) ;
#125 = ORIENTED_EDGE ( 'NONE', *, *, #58, .T. ) ;
#126 = EDGE_CURVE ( 'NONE', #144, #52, #28, .T. ) ;
#127 = APPROVAL_STATUS ( 'not_yet_approved' ) ;
#128 = DIRECTION ( 'NONE',  ( 1.000000000000000000, 0.000000000000000000, 0.000000000000000000 ) ) ;
#129 =( GEOMETRIC_REPRESENTATION_CONTEXT ( 3 ) GLOBAL_UNCERTAINTY_ASSIGNED_CONTEXT ( ( #76 ) ) GLOBAL_UNIT_ASSIGNED_CONTEXT ( ( #189, #68, #307 ) ) REPRESENTATION_CONTEXT ( 'NONE', 'WORKASPACE' ) );
#130 = CARTESIAN_POINT ( 'NONE',  ( 5.699999999999999289, 0.000000000000000000, 4.999999999999991118 ) ) ;
#131 = DIRECTION ( 'NONE',  ( 1.000000000000000000, 0.000000000000000000, 0.000000000000000000 ) ) ;
#132 = ADVANCED_FACE ( 'NONE', ( #59 ), #291, .F. ) ;
#133 = CARTESIAN_POINT ( 'NONE',  ( 0.000000000000000000, 0.000000000000000000, 5.000000000000000000 ) ) ;
#134 = DIRECTION ( 'NONE',  ( 1.000000000000000000, 0.000000000000000000, 0.000000000000000000 ) ) ;
#135 = DIRECTION ( 'NONE',  ( 1.000000000000000000, 0.000000000000000000, 0.000000000000000000 ) ) ;
#136 = CC_DESIGN_DATE_AND_TIME_ASSIGNMENT ( #285, #240, ( #168 ) ) ;
#137 = PRODUCT ( 'ecdb', 'ecdb', '', ( #141 ) ) ;
#138 = DIRECTION ( 'NONE',  ( 1.000000000000000000, 0.000000000000000000, 0.000000000000000000 ) ) ;
#139 = PERSON_AND_ORGANIZATION_ROLE ( 'creator' ) ;
#140 = ORIENTED_EDGE ( 'NONE', *, *, #256, .F. ) ;
#141 = MECHANICAL_CONTEXT ( 'NONE', #194, 'mechanical' ) ;
#142 = EDGE_CURVE ( 'NONE', #289, #98, #158, .T. ) ;
#143 = CIRCLE ( 'NONE', #155, 0.1999999999999996503 ) ;
#144 = VERTEX_POINT ( 'NONE', #78 ) ;
#145 = CARTESIAN_POINT ( 'NONE',  ( 5.500000000000000000, 6.735557395310442023E-16, 635.0000000000000000 ) ) ;
#146 = APPROVAL_DATE_TIME ( #243, #43 ) ;
#147 = VERTEX_POINT ( 'NONE', #229 ) ;
#148 = AXIS2_PLACEMENT_3D ( 'NONE', #133, #81, #177 ) ;
#149 = APPROVAL_PERSON_ORGANIZATION ( #264, #43, #216 ) ;
#150 = PERSON_AND_ORGANIZATION ( #5, #253 ) ;
#151 = EDGE_LOOP ( 'NONE', ( #287, #26, #199, #106 ) ) ;
#152 = ADVANCED_FACE ( 'NONE', ( #178 ), #246, .F. ) ;
#153 = ORIENTED_EDGE ( 'NONE', *, *, #121, .F. ) ;
#154 = DIRECTION ( 'NONE',  ( 1.000000000000000000, 0.000000000000000000, 0.000000000000000000 ) ) ;
#155 = AXIS2_PLACEMENT_3D ( 'NONE', #41, #213, #279 ) ;
#156 = ADVANCED_FACE ( 'NONE', ( #12 ), #248, .T. ) ;
#157 = DIRECTION ( 'NONE',  ( -0.000000000000000000, -0.000000000000000000, -1.000000000000000000 ) ) ;
#158 = LINE ( 'NONE', #56, #9 ) ;
#159 = DIRECTION ( 'NONE',  ( 1.000000000000000000, 0.000000000000000000, -0.000000000000000000 ) ) ;
#160 = ORIENTED_EDGE ( 'NONE', *, *, #260, .T. ) ;
#161 = AXIS2_PLACEMENT_3D ( 'NONE', #171, #292, #128 ) ;
#162 = FACE_OUTER_BOUND ( 'NONE', #239, .T. ) ;
#163 = ADVANCED_FACE ( 'NONE', ( #203 ), #7, .T. ) ;
#164 = DIRECTION ( 'NONE',  ( 1.000000000000000000, 0.000000000000000000, 0.000000000000000000 ) ) ;
#165 = CARTESIAN_POINT ( 'NONE',  ( 0.000000000000000000, 0.000000000000000000, 635.0000000000000000 ) ) ;
#166 = PERSON_AND_ORGANIZATION ( #5, #253 ) ;
#167 = VECTOR ( 'NONE', #271, 1000.000000000000000 ) ;
#168 = SECURITY_CLASSIFICATION ( '', '', #198 ) ;
#169 = CC_DESIGN_DATE_AND_TIME_ASSIGNMENT ( #118, #231, ( #95 ) ) ;
#170 = DIRECTION ( 'NONE',  ( 1.000000000000000000, 0.000000000000000000, 0.000000000000000000 ) ) ;
#171 = CARTESIAN_POINT ( 'NONE',  ( 0.000000000000000000, 0.000000000000000000, 5.199999999999982414 ) ) ;
#172 = PERSON_AND_ORGANIZATION_ROLE ( 'design_supplier' ) ;
#173 = ORIENTED_EDGE ( 'NONE', *, *, #256, .T. ) ;
#174 = EDGE_LOOP ( 'NONE', ( #267, #242 ) ) ;
#175 = ORIENTED_EDGE ( 'NONE', *, *, #58, .F. ) ;
#176 = DIRECTION ( 'NONE',  ( 0.000000000000000000, 0.000000000000000000, 1.000000000000000000 ) ) ;
#177 = DIRECTION ( 'NONE',  ( 1.000000000000000000, 0.000000000000000000, -0.000000000000000000 ) ) ;
#178 = FACE_OUTER_BOUND ( 'NONE', #174, .T. ) ;
#179 = CARTESIAN_POINT ( 'NONE',  ( 0.000000000000000000, 0.000000000000000000, 635.0000000000000000 ) ) ;
#180 = APPROVAL ( #232, 'NEURÈENÝ' ) ;
#181 = CIRCLE ( 'NONE', #296, 5.699999999999999289 ) ;
#182 = APPROVAL_PERSON_ORGANIZATION ( #166, #180, #16 ) ;
#183 = DIRECTION ( 'NONE',  ( -1.000000000000000000, 0.000000000000000000, 0.000000000000000000 ) ) ;
#184 = ORIENTED_EDGE ( 'NONE', *, *, #238, .T. ) ;
#185 = CC_DESIGN_PERSON_AND_ORGANIZATION_ASSIGNMENT ( #235, #139, ( #95 ) ) ;
#186 = PERSON_AND_ORGANIZATION_ROLE ( 'design_owner' ) ;
#187 = PERSON_AND_ORGANIZATION ( #5, #253 ) ;
#188 = AXIS2_PLACEMENT_3D ( 'NONE', #226, #42, #281 ) ;
#189 =( LENGTH_UNIT ( ) NAMED_UNIT ( * ) SI_UNIT ( .MILLI., .METRE. ) );
#190 = CARTESIAN_POINT ( 'NONE',  ( 8.000000000000000000, 9.797174393178825657E-16, 5.000000000000000000 ) ) ;
#191 = ORIENTED_EDGE ( 'NONE', *, *, #99, .F. ) ;
#192 = ORIENTED_EDGE ( 'NONE', *, *, #260, .F. ) ;
#193 = AXIS2_PLACEMENT_3D ( 'NONE', #207, #230, #183 ) ;
#194 = APPLICATION_CONTEXT ( 'configuration controlled 3d designs of mechanical parts and assemblies' ) ;
#195 = VERTEX_POINT ( 'NONE', #272 ) ;
#196 = ADVANCED_FACE ( 'NONE', ( #162 ), #113, .T. ) ;
#197 = DIRECTION ( 'NONE',  ( -0.000000000000000000, -0.000000000000000000, -1.000000000000000000 ) ) ;
#198 = SECURITY_CLASSIFICATION_LEVEL ( 'unclassified' ) ;
#199 = ORIENTED_EDGE ( 'NONE', *, *, #266, .T. ) ;
#200 = PRODUCT_DEFINITION_FORMATION_WITH_SPECIFIED_SOURCE ( 'LIBOVOLNÝ', '', #137, .NOT_KNOWN. ) ;
#201 = FACE_OUTER_BOUND ( 'NONE', #222, .T. ) ;
#202 = ORIENTED_EDGE ( 'NONE', *, *, #142, .T. ) ;
#203 = FACE_OUTER_BOUND ( 'NONE', #151, .T. ) ;
#204 = AXIS2_PLACEMENT_3D ( 'NONE', #6, #197, #108 ) ;
#205 = DIRECTION ( 'NONE',  ( 0.000000000000000000, 0.000000000000000000, 1.000000000000000000 ) ) ;
#206 = DIRECTION ( 'NONE',  ( -0.000000000000000000, -0.000000000000000000, -1.000000000000000000 ) ) ;
#207 = CARTESIAN_POINT ( 'NONE',  ( 0.000000000000000000, 0.000000000000000000, 5.000000000000000000 ) ) ;
#208 = ADVANCED_BREP_SHAPE_REPRESENTATION ( 'ecdb', ( #82, #115 ), #129 ) ;
#209 = CIRCLE ( 'NONE', #111, 8.000000000000000000 ) ;
#210 = CARTESIAN_POINT ( 'NONE',  ( 0.000000000000000000, 0.000000000000000000, 635.0000000000000000 ) ) ;
#211 = APPLICATION_CONTEXT ( 'configuration controlled 3d designs of mechanical parts and assemblies' ) ;
#212 = CALENDAR_DATE ( 2022, 7, 7 ) ;
#213 = DIRECTION ( 'NONE',  ( 1.224646799147353207E-16, 1.000000000000000000, -0.000000000000000000 ) ) ;
#214 = AXIS2_PLACEMENT_3D ( 'NONE', #210, #282, #96 ) ;
#215 = CC_DESIGN_PERSON_AND_ORGANIZATION_ASSIGNMENT ( #187, #262, ( #200 ) ) ;
#216 = APPROVAL_ROLE ( '' ) ;
#217 = FACE_OUTER_BOUND ( 'NONE', #259, .T. ) ;
#218 = COORDINATED_UNIVERSAL_TIME_OFFSET ( 1, 0, .AHEAD. ) ;
#219 = FACE_OUTER_BOUND ( 'NONE', #48, .T. ) ;
#220 = ORIENTED_EDGE ( 'NONE', *, *, #247, .T. ) ;
#221 = SHAPE_DEFINITION_REPRESENTATION ( #89, #208 ) ;
#222 = EDGE_LOOP ( 'NONE', ( #97, #192, #88, #102 ) ) ;
#223 = AXIS2_PLACEMENT_3D ( 'NONE', #110, #205, #135 ) ;
#224 = CIRCLE ( 'NONE', #66, 8.000000000000000000 ) ;
#225 = LINE ( 'NONE', #145, #277 ) ;
#226 = CARTESIAN_POINT ( 'NONE',  ( 0.000000000000000000, 0.000000000000000000, 0.000000000000000000 ) ) ;
#227 = CARTESIAN_POINT ( 'NONE',  ( 0.000000000000000000, 0.000000000000000000, 0.000000000000000000 ) ) ;
#228 = CIRCLE ( 'NONE', #223, 5.500000000000000000 ) ;
#229 = CARTESIAN_POINT ( 'NONE',  ( -5.500000000000000000, 0.000000000000000000, 5.199999999999982414 ) ) ;
#230 = DIRECTION ( 'NONE',  ( -0.000000000000000000, -0.000000000000000000, -1.000000000000000000 ) ) ;
#231 = DATE_TIME_ROLE ( 'creation_date' ) ;
#232 = APPROVAL_STATUS ( 'not_yet_approved' ) ;
#233 = DATE_AND_TIME ( #45, #74 ) ;
#234 = AXIS2_PLACEMENT_3D ( 'NONE', #293, #299, #134 ) ;
#235 = PERSON_AND_ORGANIZATION ( #5, #253 ) ;
#236 = CC_DESIGN_APPROVAL ( #43, ( #168 ) ) ;
#237 = CARTESIAN_POINT ( 'NONE',  ( 8.000000000000000000, 9.797174393178825657E-16, 0.000000000000000000 ) ) ;
#238 = EDGE_CURVE ( 'NONE', #98, #75, #224, .T. ) ;
#239 = EDGE_LOOP ( 'NONE', ( #72, #46, #202, #184 ) ) ;
#240 = DATE_TIME_ROLE ( 'classification_date' ) ;
#241 = VERTEX_POINT ( 'NONE', #250 ) ;
#242 = ORIENTED_EDGE ( 'NONE', *, *, #266, .F. ) ;
#243 = DATE_AND_TIME ( #47, #278 ) ;
#244 = VECTOR ( 'NONE', #157, 1000.000000000000000 ) ;
#245 = CARTESIAN_POINT ( 'NONE',  ( 0.000000000000000000, 0.000000000000000000, 5.199999999999982414 ) ) ;
#246 = PLANE ( 'NONE',  #273 ) ;
#247 = EDGE_CURVE ( 'NONE', #283, #289, #209, .T. ) ;
#248 = PLANE ( 'NONE',  #31 ) ;
#249 = DIRECTION ( 'NONE',  ( -0.000000000000000000, -0.000000000000000000, -1.000000000000000000 ) ) ;
#250 = CARTESIAN_POINT ( 'NONE',  ( 5.500000000000000000, 6.735557395310442023E-16, 5.199999999999982414 ) ) ;
#251 = APPLICATION_PROTOCOL_DEFINITION ( 'international standard', 'config_control_design', 1994, #194 ) ;
#252 = TOROIDAL_SURFACE ( 'NONE', #161, 5.699999999999999289, 0.2000000000000000111 ) ;
#253 = ORGANIZATION ( 'NEURÈENÝ', 'NEURÈENÝ', '' ) ;
#254 = APPROVAL_ROLE ( '' ) ;
#255 = DIRECTION ( 'NONE',  ( 0.000000000000000000, 0.000000000000000000, 1.000000000000000000 ) ) ;
#256 = EDGE_CURVE ( 'NONE', #195, #147, #114, .T. ) ;
#257 = PERSON_AND_ORGANIZATION ( #5, #253 ) ;
#258 = COORDINATED_UNIVERSAL_TIME_OFFSET ( 1, 0, .AHEAD. ) ;
#259 = EDGE_LOOP ( 'NONE', ( #101, #220 ) ) ;
#260 = EDGE_CURVE ( 'NONE', #241, #147, #297, .T. ) ;
#261 = CARTESIAN_POINT ( 'NONE',  ( 5.500000000000000000, 6.735557395310442023E-16, 635.0000000000000000 ) ) ;
#262 = PERSON_AND_ORGANIZATION_ROLE ( 'creator' ) ;
#263 = DIRECTION ( 'NONE',  ( -0.000000000000000000, -0.000000000000000000, -1.000000000000000000 ) ) ;
#264 = PERSON_AND_ORGANIZATION ( #5, #253 ) ;
#265 = ORIENTED_EDGE ( 'NONE', *, *, #29, .F. ) ;
#266 = EDGE_CURVE ( 'NONE', #75, #98, #105, .T. ) ;
#267 = ORIENTED_EDGE ( 'NONE', *, *, #238, .F. ) ;
#268 = CARTESIAN_POINT ( 'NONE',  ( 0.000000000000000000, 0.000000000000000000, 5.000000000000000000 ) ) ;
#269 = CC_DESIGN_PERSON_AND_ORGANIZATION_ASSIGNMENT ( #51, #172, ( #200 ) ) ;
#270 = CARTESIAN_POINT ( 'NONE',  ( -8.000000000000000000, 0.000000000000000000, 0.000000000000000000 ) ) ;
#271 = DIRECTION ( 'NONE',  ( -0.000000000000000000, -0.000000000000000000, -1.000000000000000000 ) ) ;
#272 = CARTESIAN_POINT ( 'NONE',  ( -5.500000000000000000, 0.000000000000000000, 635.0000000000000000 ) ) ;
#273 = AXIS2_PLACEMENT_3D ( 'NONE', #227, #176, #159 ) ;
#274 = DIRECTION ( 'NONE',  ( 1.000000000000000000, 0.000000000000000000, 0.000000000000000000 ) ) ;
#275 = ORIENTED_EDGE ( 'NONE', *, *, #117, .F. ) ;
#276 = CYLINDRICAL_SURFACE ( 'NONE', #214, 5.500000000000000000 ) ;
#277 = VECTOR ( 'NONE', #263, 1000.000000000000000 ) ;
#278 = LOCAL_TIME ( 11, 48, 18.00000000000000000, #70 ) ;
#279 = DIRECTION ( 'NONE',  ( -1.000000000000000000, 1.224646799147353454E-16, 0.000000000000000000 ) ) ;
#280 = ADVANCED_FACE ( 'NONE', ( #63 ), #276, .T. ) ;
#281 = DIRECTION ( 'NONE',  ( 1.000000000000000000, 0.000000000000000000, 0.000000000000000000 ) ) ;
#282 = DIRECTION ( 'NONE',  ( -0.000000000000000000, -0.000000000000000000, -1.000000000000000000 ) ) ;
#283 = VERTEX_POINT ( 'NONE', #190 ) ;
#284 = EDGE_CURVE ( 'NONE', #195, #73, #80, .T. ) ;
#285 = DATE_AND_TIME ( #49, #60 ) ;
#286 = LOCAL_TIME ( 11, 48, 18.00000000000000000, #306 ) ;
#287 = ORIENTED_EDGE ( 'NONE', *, *, #247, .F. ) ;
#288 = ORIENTED_EDGE ( 'NONE', *, *, #126, .T. ) ;
#289 = VERTEX_POINT ( 'NONE', #14 ) ;
#290 = APPROVAL ( #64, 'NEURÈENÝ' ) ;
#291 = TOROIDAL_SURFACE ( 'NONE', #19, 5.699999999999999289, 0.2000000000000000111 ) ;
#292 = DIRECTION ( 'NONE',  ( 0.000000000000000000, 0.000000000000000000, 1.000000000000000000 ) ) ;
#293 = CARTESIAN_POINT ( 'NONE',  ( 0.000000000000000000, 0.000000000000000000, 5.000000000000000000 ) ) ;
#294 = EDGE_CURVE ( 'NONE', #147, #144, #143, .T. ) ;
#295 = DIRECTION ( 'NONE',  ( 0.000000000000000000, 0.000000000000000000, 1.000000000000000000 ) ) ;
#296 = AXIS2_PLACEMENT_3D ( 'NONE', #24, #27, #154 ) ;
#297 = CIRCLE ( 'NONE', #119, 5.500000000000000000 ) ;
#298 = DIRECTION ( 'NONE',  ( 0.000000000000000000, 0.000000000000000000, -1.000000000000000000 ) ) ;
#299 = DIRECTION ( 'NONE',  ( -0.000000000000000000, -0.000000000000000000, -1.000000000000000000 ) ) ;
#300 = DIRECTION ( 'NONE',  ( 0.000000000000000000, -1.000000000000000000, 0.000000000000000000 ) ) ;
#301 = PRODUCT_RELATED_PRODUCT_CATEGORY ( 'detail', '', ( #137 ) ) ;
#302 = CC_DESIGN_APPROVAL ( #290, ( #95 ) ) ;
#303 = APPROVAL_DATE_TIME ( #233, #290 ) ;
#304 = DIRECTION ( 'NONE',  ( 1.000000000000000000, 0.000000000000000000, 0.000000000000000000 ) ) ;
#305 = DATE_AND_TIME ( #212, #44 ) ;
#306 = COORDINATED_UNIVERSAL_TIME_OFFSET ( 1, 0, .AHEAD. ) ;
#307 =( NAMED_UNIT ( * ) SI_UNIT ( $, .STERADIAN. ) SOLID_ANGLE_UNIT ( ) );
ENDSEC;
END-ISO-10303-21;
