ISO-10303-21;
HEADER;
FILE_DESCRIPTION (( 'STEP AP203' ),
    '1' );
FILE_NAME ('e13a.STEP',
    '2022-07-07T09:56:40',
    ( '' ),
    ( '' ),
    'SwSTEP 2.0',
    'SolidWorks 2019',
    '' );
FILE_SCHEMA (( 'CONFIG_CONTROL_DESIGN' ));
ENDSEC;

DATA;
#1 = DIRECTION ( 'NONE',  ( 1.000000000000000000, 0.000000000000000000, 0.000000000000000000 ) ) ;
#2 = APPROVAL ( #196, 'NEURÈENÝ' ) ;
#3 = AXIS2_PLACEMENT_3D ( 'NONE', #100, #49, #218 ) ;
#4 = FACE_OUTER_BOUND ( 'NONE', #110, .T. ) ;
#5 = AXIS2_PLACEMENT_3D ( 'NONE', #116, #43, #249 ) ;
#6 = PERSON ( 'NEURÈENÝ', 'NEURÈENÝ', 'NEURÈENÝ', ('NEURÈENÝ'), ('NEURÈENÝ'), ('NEURÈENÝ') ) ;
#7 = VERTEX_POINT ( 'NONE', #16 ) ;
#8 = AXIS2_PLACEMENT_3D ( 'NONE', #73, #165, #194 ) ;
#9 =( GEOMETRIC_REPRESENTATION_CONTEXT ( 3 ) GLOBAL_UNCERTAINTY_ASSIGNED_CONTEXT ( ( #124 ) ) GLOBAL_UNIT_ASSIGNED_CONTEXT ( ( #72, #239, #162 ) ) REPRESENTATION_CONTEXT ( 'NONE', 'WORKASPACE' ) );
#10 = CARTESIAN_POINT ( 'NONE',  ( 7.000000000000000000, 8.572527594031473190E-16, 5.000000000000000000 ) ) ;
#11 = CALENDAR_DATE ( 2022, 7, 7 ) ;
#12 = VERTEX_POINT ( 'NONE', #10 ) ;
#13 = APPROVAL_ROLE ( '' ) ;
#14 = EDGE_LOOP ( 'NONE', ( #33, #130 ) ) ;
#15 = CIRCLE ( 'NONE', #23, 4.500000000000000888 ) ;
#16 = CARTESIAN_POINT ( 'NONE',  ( 7.000000000000000000, 8.572527594031473190E-16, 0.000000000000000000 ) ) ;
#17 = CARTESIAN_POINT ( 'NONE',  ( -7.000000000000000000, 0.000000000000000000, 0.000000000000000000 ) ) ;
#18 = DIRECTION ( 'NONE',  ( 0.000000000000000000, 0.000000000000000000, 1.000000000000000000 ) ) ;
#19 = CARTESIAN_POINT ( 'NONE',  ( 0.000000000000000000, 0.000000000000000000, 0.000000000000000000 ) ) ;
#20 = CARTESIAN_POINT ( 'NONE',  ( 0.000000000000000000, 0.000000000000000000, 5.000000000000000000 ) ) ;
#21 = DIRECTION ( 'NONE',  ( -0.000000000000000000, -0.000000000000000000, -1.000000000000000000 ) ) ;
#22 = DIRECTION ( 'NONE',  ( 1.000000000000000000, 0.000000000000000000, 0.000000000000000000 ) ) ;
#23 = AXIS2_PLACEMENT_3D ( 'NONE', #285, #98, #166 ) ;
#24 = CALENDAR_DATE ( 2022, 7, 7 ) ;
#25 = DIRECTION ( 'NONE',  ( -0.000000000000000000, -0.000000000000000000, -1.000000000000000000 ) ) ;
#26 = CARTESIAN_POINT ( 'NONE',  ( 4.700000000000000178, 0.000000000000000000, 5.199999999999982414 ) ) ;
#27 = CIRCLE ( 'NONE', #269, 7.000000000000000000 ) ;
#28 = COORDINATED_UNIVERSAL_TIME_OFFSET ( 1, 0, .AHEAD. ) ;
#29 = ORIENTED_EDGE ( 'NONE', *, *, #103, .T. ) ;
#30 = PERSON_AND_ORGANIZATION_ROLE ( 'creator' ) ;
#31 = EDGE_LOOP ( 'NONE', ( #101, #220, #227, #151 ) ) ;
#32 = CC_DESIGN_DATE_AND_TIME_ASSIGNMENT ( #200, #126, ( #213 ) ) ;
#33 = ORIENTED_EDGE ( 'NONE', *, *, #145, .T. ) ;
#34 = AXIS2_PLACEMENT_3D ( 'NONE', #294, #85, #228 ) ;
#35 = COORDINATED_UNIVERSAL_TIME_OFFSET ( 1, 0, .AHEAD. ) ;
#36 = VERTEX_POINT ( 'NONE', #104 ) ;
#37 = LOCAL_TIME ( 11, 56, 40.00000000000000000, #202 ) ;
#38 = CYLINDRICAL_SURFACE ( 'NONE', #286, 7.000000000000000000 ) ;
#39 = FACE_OUTER_BOUND ( 'NONE', #226, .T. ) ;
#40 = DIRECTION ( 'NONE',  ( 0.000000000000000000, 0.000000000000000000, 1.000000000000000000 ) ) ;
#41 = FACE_OUTER_BOUND ( 'NONE', #298, .T. ) ;
#42 = ADVANCED_FACE ( 'NONE', ( #297 ), #201, .F. ) ;
#43 = DIRECTION ( 'NONE',  ( 0.000000000000000000, 0.000000000000000000, 1.000000000000000000 ) ) ;
#44 = DIRECTION ( 'NONE',  ( 1.000000000000000000, 0.000000000000000000, 0.000000000000000000 ) ) ;
#45 = CARTESIAN_POINT ( 'NONE',  ( 0.000000000000000000, 0.000000000000000000, 320.0000000000000000 ) ) ;
#46 = CC_DESIGN_APPROVAL ( #2, ( #122 ) ) ;
#47 = ADVANCED_FACE ( 'NONE', ( #205, #211 ), #87, .T. ) ;
#48 = CYLINDRICAL_SURFACE ( 'NONE', #232, 4.500000000000000888 ) ;
#49 = DIRECTION ( 'NONE',  ( 0.000000000000000000, 0.000000000000000000, 1.000000000000000000 ) ) ;
#50 = APPLICATION_PROTOCOL_DEFINITION ( 'international standard', 'config_control_design', 1994, #266 ) ;
#51 = VECTOR ( 'NONE', #251, 1000.000000000000000 ) ;
#52 = PERSON_AND_ORGANIZATION ( #6, #56 ) ;
#53 = ORIENTED_EDGE ( 'NONE', *, *, #183, .T. ) ;
#54 = EDGE_LOOP ( 'NONE', ( #271, #268 ) ) ;
#55 = ADVANCED_FACE ( 'NONE', ( #89 ), #38, .T. ) ;
#56 = ORGANIZATION ( 'NEURÈENÝ', 'NEURÈENÝ', '' ) ;
#57 = DATE_AND_TIME ( #291, #295 ) ;
#58 = VERTEX_POINT ( 'NONE', #182 ) ;
#59 = PERSON_AND_ORGANIZATION ( #6, #56 ) ;
#60 = VERTEX_POINT ( 'NONE', #136 ) ;
#61 = DIRECTION ( 'NONE',  ( 1.000000000000000000, 0.000000000000000000, 0.000000000000000000 ) ) ;
#62 = TOROIDAL_SURFACE ( 'NONE', #241, 4.700000000000000178, 0.2000000000000000111 ) ;
#63 = FACE_OUTER_BOUND ( 'NONE', #174, .T. ) ;
#64 = CARTESIAN_POINT ( 'NONE',  ( -4.500000000000000888, 0.000000000000000000, 320.0000000000000000 ) ) ;
#65 = APPROVAL ( #129, 'NEURÈENÝ' ) ;
#66 = DIRECTION ( 'NONE',  ( 0.000000000000000000, 0.000000000000000000, 1.000000000000000000 ) ) ;
#67 = AXIS2_PLACEMENT_3D ( 'NONE', #179, #305, #117 ) ;
#68 = FACE_OUTER_BOUND ( 'NONE', #292, .T. ) ;
#69 = PERSON_AND_ORGANIZATION ( #6, #56 ) ;
#70 = APPLICATION_CONTEXT ( 'configuration controlled 3d designs of mechanical parts and assemblies' ) ;
#71 = AXIS2_PLACEMENT_3D ( 'NONE', #231, #159, #92 ) ;
#72 =( LENGTH_UNIT ( ) NAMED_UNIT ( * ) SI_UNIT ( .MILLI., .METRE. ) );
#73 = CARTESIAN_POINT ( 'NONE',  ( 0.000000000000000000, 0.000000000000000000, 5.000000000000000000 ) ) ;
#74 = CC_DESIGN_PERSON_AND_ORGANIZATION_ASSIGNMENT ( #265, #272, ( #122 ) ) ;
#75 = ADVANCED_FACE ( 'NONE', ( #63 ), #280, .T. ) ;
#76 = DATE_AND_TIME ( #170, #307 ) ;
#77 = LOCAL_TIME ( 11, 56, 40.00000000000000000, #35 ) ;
#78 = ORIENTED_EDGE ( 'NONE', *, *, #81, .F. ) ;
#79 = EDGE_CURVE ( 'NONE', #36, #80, #306, .T. ) ;
#80 = VERTEX_POINT ( 'NONE', #17 ) ;
#81 = EDGE_CURVE ( 'NONE', #36, #12, #27, .T. ) ;
#82 = DATE_AND_TIME ( #11, #37 ) ;
#83 = ORIENTED_EDGE ( 'NONE', *, *, #154, .T. ) ;
#84 = AXIS2_PLACEMENT_3D ( 'NONE', #26, #190, #141 ) ;
#85 = DIRECTION ( 'NONE',  ( 0.000000000000000000, 0.000000000000000000, 1.000000000000000000 ) ) ;
#86 = EDGE_LOOP ( 'NONE', ( #172, #78, #248, #125 ) ) ;
#87 = PLANE ( 'NONE',  #5 ) ;
#88 = CIRCLE ( 'NONE', #3, 4.500000000000000888 ) ;
#89 = FACE_OUTER_BOUND ( 'NONE', #86, .T. ) ;
#90 = CC_DESIGN_PERSON_AND_ORGANIZATION_ASSIGNMENT ( #168, #296, ( #122 ) ) ;
#91 = CARTESIAN_POINT ( 'NONE',  ( 0.000000000000000000, 0.000000000000000000, 5.199999999999982414 ) ) ;
#92 = DIRECTION ( 'NONE',  ( 1.000000000000000000, 0.000000000000000000, -0.000000000000000000 ) ) ;
#93 = ADVANCED_BREP_SHAPE_REPRESENTATION ( 'e13a', ( #132, #134 ), #9 ) ;
#94 = AXIS2_PLACEMENT_3D ( 'NONE', #215, #25, #22 ) ;
#95 = CARTESIAN_POINT ( 'NONE',  ( 4.500000000000000888, 5.510910596163089556E-16, 320.0000000000000000 ) ) ;
#96 = AXIS2_PLACEMENT_3D ( 'NONE', #235, #156, #230 ) ;
#97 = DIRECTION ( 'NONE',  ( -1.000000000000000000, 0.000000000000000000, 0.000000000000000000 ) ) ;
#98 = DIRECTION ( 'NONE',  ( 0.000000000000000000, 0.000000000000000000, 1.000000000000000000 ) ) ;
#99 = CIRCLE ( 'NONE', #204, 7.000000000000000000 ) ;
#100 = CARTESIAN_POINT ( 'NONE',  ( 0.000000000000000000, 0.000000000000000000, 320.0000000000000000 ) ) ;
#101 = ORIENTED_EDGE ( 'NONE', *, *, #191, .F. ) ;
#102 = AXIS2_PLACEMENT_3D ( 'NONE', #91, #66, #158 ) ;
#103 = EDGE_CURVE ( 'NONE', #12, #7, #111, .T. ) ;
#104 = CARTESIAN_POINT ( 'NONE',  ( -7.000000000000000000, 0.000000000000000000, 5.000000000000000000 ) ) ;
#105 = CALENDAR_DATE ( 2022, 7, 7 ) ;
#106 = ORIENTED_EDGE ( 'NONE', *, *, #233, .F. ) ;
#107 = APPROVAL_DATE_TIME ( #259, #290 ) ;
#108 = ORIENTED_EDGE ( 'NONE', *, *, #233, .T. ) ;
#109 = AXIS2_PLACEMENT_3D ( 'NONE', #157, #40, #137 ) ;
#110 = EDGE_LOOP ( 'NONE', ( #127, #29, #53, #133 ) ) ;
#111 = LINE ( 'NONE', #278, #192 ) ;
#112 = CARTESIAN_POINT ( 'NONE',  ( 4.500000000000000888, 5.510910596163089556E-16, 5.199999999999982414 ) ) ;
#113 = CC_DESIGN_PERSON_AND_ORGANIZATION_ASSIGNMENT ( #293, #288, ( #213 ) ) ;
#114 = EDGE_CURVE ( 'NONE', #178, #171, #155, .T. ) ;
#115 = DIRECTION ( 'NONE',  ( 1.000000000000000000, 0.000000000000000000, 0.000000000000000000 ) ) ;
#116 = CARTESIAN_POINT ( 'NONE',  ( 0.000000000000000000, 0.000000000000000000, 5.000000000000000000 ) ) ;
#117 = DIRECTION ( 'NONE',  ( 1.000000000000000000, 0.000000000000000000, 0.000000000000000000 ) ) ;
#118 = CIRCLE ( 'NONE', #163, 0.1999999999999996503 ) ;
#119 = PRODUCT_DEFINITION ( 'NEZNÁMÝ', '', #122, #167 ) ;
#120 = APPLICATION_PROTOCOL_DEFINITION ( 'international standard', 'config_control_design', 1994, #70 ) ;
#121 = CARTESIAN_POINT ( 'NONE',  ( 0.000000000000000000, 0.000000000000000000, 0.000000000000000000 ) ) ;
#122 = PRODUCT_DEFINITION_FORMATION_WITH_SPECIFIED_SOURCE ( 'LIBOVOLNÝ', '', #263, .NOT_KNOWN. ) ;
#123 = PRODUCT_DEFINITION_SHAPE ( 'NONE', 'NONE',  #119 ) ;
#124 = UNCERTAINTY_MEASURE_WITH_UNIT (LENGTH_MEASURE( 1.000000000000000082E-05 ), #72, 'distance_accuracy_value', 'NONE');
#125 = ORIENTED_EDGE ( 'NONE', *, *, #176, .T. ) ;
#126 = DATE_TIME_ROLE ( 'classification_date' ) ;
#127 = ORIENTED_EDGE ( 'NONE', *, *, #154, .F. ) ;
#128 = CIRCLE ( 'NONE', #302, 7.000000000000000000 ) ;
#129 = APPROVAL_STATUS ( 'not_yet_approved' ) ;
#130 = ORIENTED_EDGE ( 'NONE', *, *, #300, .T. ) ;
#131 = ORIENTED_EDGE ( 'NONE', *, *, #81, .T. ) ;
#132 = MANIFOLD_SOLID_BREP ( 'Zaoblit1', #261 ) ;
#133 = ORIENTED_EDGE ( 'NONE', *, *, #79, .F. ) ;
#134 = AXIS2_PLACEMENT_3D ( 'NONE', #121, #284, #1 ) ;
#135 = CARTESIAN_POINT ( 'NONE',  ( 0.000000000000000000, 0.000000000000000000, 5.000000000000000000 ) ) ;
#136 = CARTESIAN_POINT ( 'NONE',  ( 4.700000000000000178, 0.000000000000000000, 4.999999999999991118 ) ) ;
#137 = DIRECTION ( 'NONE',  ( 1.000000000000000000, 0.000000000000000000, 0.000000000000000000 ) ) ;
#138 = CC_DESIGN_PERSON_AND_ORGANIZATION_ASSIGNMENT ( #270, #30, ( #119 ) ) ;
#139 = PLANE ( 'NONE',  #71 ) ;
#140 = CARTESIAN_POINT ( 'NONE',  ( -7.000000000000000000, 0.000000000000000000, 5.000000000000000000 ) ) ;
#141 = DIRECTION ( 'NONE',  ( 0.000000000000000000, 0.000000000000000000, -1.000000000000000000 ) ) ;
#142 = APPROVAL_PERSON_ORGANIZATION ( #69, #290, #238 ) ;
#143 = CIRCLE ( 'NONE', #84, 0.1999999999999996503 ) ;
#144 = CARTESIAN_POINT ( 'NONE',  ( 0.000000000000000000, 0.000000000000000000, 320.0000000000000000 ) ) ;
#145 = EDGE_CURVE ( 'NONE', #60, #267, #197, .T. ) ;
#146 = APPROVAL_STATUS ( 'not_yet_approved' ) ;
#147 = CC_DESIGN_PERSON_AND_ORGANIZATION_ASSIGNMENT ( #188, #240, ( #263 ) ) ;
#148 = ADVANCED_FACE ( 'NONE', ( #68 ), #139, .T. ) ;
#149 = ORIENTED_EDGE ( 'NONE', *, *, #301, .T. ) ;
#150 = ORIENTED_EDGE ( 'NONE', *, *, #191, .T. ) ;
#151 = ORIENTED_EDGE ( 'NONE', *, *, #301, .F. ) ;
#152 = SHAPE_DEFINITION_REPRESENTATION ( #123, #93 ) ;
#153 = ORIENTED_EDGE ( 'NONE', *, *, #160, .T. ) ;
#154 = EDGE_CURVE ( 'NONE', #12, #36, #99, .T. ) ;
#155 = LINE ( 'NONE', #95, #258 ) ;
#156 = DIRECTION ( 'NONE',  ( -0.000000000000000000, -0.000000000000000000, -1.000000000000000000 ) ) ;
#157 = CARTESIAN_POINT ( 'NONE',  ( 0.000000000000000000, 0.000000000000000000, 0.000000000000000000 ) ) ;
#158 = DIRECTION ( 'NONE',  ( 1.000000000000000000, 0.000000000000000000, 0.000000000000000000 ) ) ;
#159 = DIRECTION ( 'NONE',  ( 0.000000000000000000, 0.000000000000000000, 1.000000000000000000 ) ) ;
#160 = EDGE_CURVE ( 'NONE', #58, #276, #181, .T. ) ;
#161 = DIRECTION ( 'NONE',  ( -0.000000000000000000, -0.000000000000000000, -1.000000000000000000 ) ) ;
#162 =( NAMED_UNIT ( * ) SI_UNIT ( $, .STERADIAN. ) SOLID_ANGLE_UNIT ( ) );
#163 = AXIS2_PLACEMENT_3D ( 'NONE', #253, #210, #304 ) ;
#164 = ADVANCED_FACE ( 'NONE', ( #39 ), #62, .F. ) ;
#165 = DIRECTION ( 'NONE',  ( -0.000000000000000000, -0.000000000000000000, -1.000000000000000000 ) ) ;
#166 = DIRECTION ( 'NONE',  ( 1.000000000000000000, 0.000000000000000000, 0.000000000000000000 ) ) ;
#167 = DESIGN_CONTEXT ( 'detailed design', #266, 'design' ) ;
#168 = PERSON_AND_ORGANIZATION ( #6, #56 ) ;
#169 = APPROVAL_PERSON_ORGANIZATION ( #59, #2, #225 ) ;
#170 = CALENDAR_DATE ( 2022, 7, 7 ) ;
#171 = VERTEX_POINT ( 'NONE', #112 ) ;
#172 = ORIENTED_EDGE ( 'NONE', *, *, #103, .F. ) ;
#173 = COORDINATED_UNIVERSAL_TIME_OFFSET ( 1, 0, .AHEAD. ) ;
#174 = EDGE_LOOP ( 'NONE', ( #177, #243, #153, #150 ) ) ;
#175 = AXIS2_PLACEMENT_3D ( 'NONE', #45, #281, #242 ) ;
#176 = EDGE_CURVE ( 'NONE', #80, #7, #128, .T. ) ;
#177 = ORIENTED_EDGE ( 'NONE', *, *, #114, .F. ) ;
#178 = VERTEX_POINT ( 'NONE', #279 ) ;
#179 = CARTESIAN_POINT ( 'NONE',  ( 0.000000000000000000, 0.000000000000000000, 5.000000000000000000 ) ) ;
#180 = LOCAL_TIME ( 11, 56, 40.00000000000000000, #28 ) ;
#181 = LINE ( 'NONE', #64, #51 ) ;
#182 = CARTESIAN_POINT ( 'NONE',  ( -4.500000000000000888, 0.000000000000000000, 320.0000000000000000 ) ) ;
#183 = EDGE_CURVE ( 'NONE', #7, #80, #229, .T. ) ;
#184 = CC_DESIGN_DATE_AND_TIME_ASSIGNMENT ( #76, #287, ( #119 ) ) ;
#185 = CARTESIAN_POINT ( 'NONE',  ( 0.000000000000000000, 0.000000000000000000, 5.000000000000000000 ) ) ;
#186 = AXIS2_PLACEMENT_3D ( 'NONE', #256, #216, #44 ) ;
#187 = DIRECTION ( 'NONE',  ( 0.000000000000000000, 0.000000000000000000, 1.000000000000000000 ) ) ;
#188 = PERSON_AND_ORGANIZATION ( #6, #56 ) ;
#189 = EDGE_CURVE ( 'NONE', #276, #267, #118, .T. ) ;
#190 = DIRECTION ( 'NONE',  ( 0.000000000000000000, -1.000000000000000000, 0.000000000000000000 ) ) ;
#191 = EDGE_CURVE ( 'NONE', #276, #171, #237, .T. ) ;
#192 = VECTOR ( 'NONE', #21, 1000.000000000000000 ) ;
#193 = FACE_OUTER_BOUND ( 'NONE', #31, .T. ) ;
#194 = DIRECTION ( 'NONE',  ( -1.000000000000000000, 0.000000000000000000, 0.000000000000000000 ) ) ;
#195 = PRODUCT_RELATED_PRODUCT_CATEGORY ( 'detail', '', ( #263 ) ) ;
#196 = APPROVAL_STATUS ( 'not_yet_approved' ) ;
#197 = CIRCLE ( 'NONE', #67, 4.700000000000000178 ) ;
#198 = ORIENTED_EDGE ( 'NONE', *, *, #234, .F. ) ;
#199 = ORIENTED_EDGE ( 'NONE', *, *, #189, .F. ) ;
#200 = DATE_AND_TIME ( #105, #77 ) ;
#201 = PLANE ( 'NONE',  #34 ) ;
#202 = COORDINATED_UNIVERSAL_TIME_OFFSET ( 1, 0, .AHEAD. ) ;
#203 = ORIENTED_EDGE ( 'NONE', *, *, #234, .T. ) ;
#204 = AXIS2_PLACEMENT_3D ( 'NONE', #185, #212, #277 ) ;
#205 = FACE_BOUND ( 'NONE', #14, .T. ) ;
#206 = ADVANCED_FACE ( 'NONE', ( #41 ), #48, .T. ) ;
#207 = DIRECTION ( 'NONE',  ( -0.000000000000000000, -0.000000000000000000, -1.000000000000000000 ) ) ;
#208 = DIRECTION ( 'NONE',  ( -0.000000000000000000, -0.000000000000000000, -1.000000000000000000 ) ) ;
#209 = TOROIDAL_SURFACE ( 'NONE', #186, 4.700000000000000178, 0.2000000000000000111 ) ;
#210 = DIRECTION ( 'NONE',  ( 1.224646799147353207E-16, 1.000000000000000000, -0.000000000000000000 ) ) ;
#211 = FACE_OUTER_BOUND ( 'NONE', #244, .T. ) ;
#212 = DIRECTION ( 'NONE',  ( 0.000000000000000000, 0.000000000000000000, 1.000000000000000000 ) ) ;
#213 = SECURITY_CLASSIFICATION ( '', '', #247 ) ;
#214 = MECHANICAL_CONTEXT ( 'NONE', #70, 'mechanical' ) ;
#215 = CARTESIAN_POINT ( 'NONE',  ( 0.000000000000000000, 0.000000000000000000, 5.000000000000000000 ) ) ;
#216 = DIRECTION ( 'NONE',  ( 0.000000000000000000, 0.000000000000000000, 1.000000000000000000 ) ) ;
#217 = CIRCLE ( 'NONE', #175, 4.500000000000000888 ) ;
#218 = DIRECTION ( 'NONE',  ( 1.000000000000000000, 0.000000000000000000, 0.000000000000000000 ) ) ;
#219 = APPROVAL_DATE_TIME ( #82, #2 ) ;
#220 = ORIENTED_EDGE ( 'NONE', *, *, #189, .T. ) ;
#221 = APPROVAL_PERSON_ORGANIZATION ( #52, #65, #13 ) ;
#222 = COORDINATED_UNIVERSAL_TIME_OFFSET ( 1, 0, .AHEAD. ) ;
#223 = ORIENTED_EDGE ( 'NONE', *, *, #114, .T. ) ;
#224 = EDGE_CURVE ( 'NONE', #58, #178, #88, .T. ) ;
#225 = APPROVAL_ROLE ( '' ) ;
#226 = EDGE_LOOP ( 'NONE', ( #199, #198, #149, #273 ) ) ;
#227 = ORIENTED_EDGE ( 'NONE', *, *, #145, .F. ) ;
#228 = DIRECTION ( 'NONE',  ( 1.000000000000000000, 0.000000000000000000, -0.000000000000000000 ) ) ;
#229 = CIRCLE ( 'NONE', #109, 7.000000000000000000 ) ;
#230 = DIRECTION ( 'NONE',  ( -1.000000000000000000, 0.000000000000000000, 0.000000000000000000 ) ) ;
#231 = CARTESIAN_POINT ( 'NONE',  ( 0.000000000000000000, 0.000000000000000000, 320.0000000000000000 ) ) ;
#232 = AXIS2_PLACEMENT_3D ( 'NONE', #144, #161, #97 ) ;
#233 = EDGE_CURVE ( 'NONE', #178, #58, #217, .T. ) ;
#234 = EDGE_CURVE ( 'NONE', #171, #276, #15, .T. ) ;
#235 = CARTESIAN_POINT ( 'NONE',  ( 0.000000000000000000, 0.000000000000000000, 320.0000000000000000 ) ) ;
#236 = DIRECTION ( 'NONE',  ( 0.000000000000000000, 0.000000000000000000, 1.000000000000000000 ) ) ;
#237 = CIRCLE ( 'NONE', #102, 4.500000000000000888 ) ;
#238 = APPROVAL_ROLE ( '' ) ;
#239 =( NAMED_UNIT ( * ) PLANE_ANGLE_UNIT ( ) SI_UNIT ( $, .RADIAN. ) );
#240 = PERSON_AND_ORGANIZATION_ROLE ( 'design_owner' ) ;
#241 = AXIS2_PLACEMENT_3D ( 'NONE', #255, #18, #115 ) ;
#242 = DIRECTION ( 'NONE',  ( 1.000000000000000000, 0.000000000000000000, 0.000000000000000000 ) ) ;
#243 = ORIENTED_EDGE ( 'NONE', *, *, #224, .F. ) ;
#244 = EDGE_LOOP ( 'NONE', ( #131, #83 ) ) ;
#245 = CIRCLE ( 'NONE', #94, 4.700000000000000178 ) ;
#246 = ORIENTED_EDGE ( 'NONE', *, *, #160, .F. ) ;
#247 = SECURITY_CLASSIFICATION_LEVEL ( 'unclassified' ) ;
#248 = ORIENTED_EDGE ( 'NONE', *, *, #79, .T. ) ;
#249 = DIRECTION ( 'NONE',  ( 1.000000000000000000, 0.000000000000000000, -0.000000000000000000 ) ) ;
#250 = CC_DESIGN_APPROVAL ( #65, ( #213 ) ) ;
#251 = DIRECTION ( 'NONE',  ( -0.000000000000000000, -0.000000000000000000, -1.000000000000000000 ) ) ;
#252 = DIRECTION ( 'NONE',  ( -0.000000000000000000, -0.000000000000000000, -1.000000000000000000 ) ) ;
#253 = CARTESIAN_POINT ( 'NONE',  ( -4.700000000000000178, 5.755839955992559655E-16, 5.199999999999982414 ) ) ;
#254 = CC_DESIGN_APPROVAL ( #290, ( #119 ) ) ;
#255 = CARTESIAN_POINT ( 'NONE',  ( 0.000000000000000000, 0.000000000000000000, 5.199999999999982414 ) ) ;
#256 = CARTESIAN_POINT ( 'NONE',  ( 0.000000000000000000, 0.000000000000000000, 5.199999999999982414 ) ) ;
#257 = CARTESIAN_POINT ( 'NONE',  ( -4.700000000000000178, 5.755839955992559655E-16, 4.999999999999991118 ) ) ;
#258 = VECTOR ( 'NONE', #207, 1000.000000000000000 ) ;
#259 = DATE_AND_TIME ( #24, #180 ) ;
#260 = CYLINDRICAL_SURFACE ( 'NONE', #8, 7.000000000000000000 ) ;
#261 = CLOSED_SHELL ( 'NONE', ( #274, #206, #262, #55, #47, #42, #75, #148, #164 ) ) ;
#262 = ADVANCED_FACE ( 'NONE', ( #4 ), #260, .T. ) ;
#263 = PRODUCT ( 'e13a', 'e13a', '', ( #214 ) ) ;
#264 = APPROVAL_DATE_TIME ( #57, #65 ) ;
#265 = PERSON_AND_ORGANIZATION ( #6, #56 ) ;
#266 = APPLICATION_CONTEXT ( 'configuration controlled 3d designs of mechanical parts and assemblies' ) ;
#267 = VERTEX_POINT ( 'NONE', #257 ) ;
#268 = ORIENTED_EDGE ( 'NONE', *, *, #183, .F. ) ;
#269 = AXIS2_PLACEMENT_3D ( 'NONE', #20, #236, #299 ) ;
#270 = PERSON_AND_ORGANIZATION ( #6, #56 ) ;
#271 = ORIENTED_EDGE ( 'NONE', *, *, #176, .F. ) ;
#272 = PERSON_AND_ORGANIZATION_ROLE ( 'creator' ) ;
#273 = ORIENTED_EDGE ( 'NONE', *, *, #300, .F. ) ;
#274 = ADVANCED_FACE ( 'NONE', ( #193 ), #209, .F. ) ;
#275 = VECTOR ( 'NONE', #252, 1000.000000000000000 ) ;
#276 = VERTEX_POINT ( 'NONE', #282 ) ;
#277 = DIRECTION ( 'NONE',  ( 1.000000000000000000, 0.000000000000000000, 0.000000000000000000 ) ) ;
#278 = CARTESIAN_POINT ( 'NONE',  ( 7.000000000000000000, 8.572527594031473190E-16, 5.000000000000000000 ) ) ;
#279 = CARTESIAN_POINT ( 'NONE',  ( 4.500000000000000888, 5.510910596163089556E-16, 320.0000000000000000 ) ) ;
#280 = CYLINDRICAL_SURFACE ( 'NONE', #96, 4.500000000000000888 ) ;
#281 = DIRECTION ( 'NONE',  ( 0.000000000000000000, 0.000000000000000000, 1.000000000000000000 ) ) ;
#282 = CARTESIAN_POINT ( 'NONE',  ( -4.500000000000000888, 0.000000000000000000, 5.199999999999982414 ) ) ;
#283 = CC_DESIGN_SECURITY_CLASSIFICATION ( #213, ( #122 ) ) ;
#284 = DIRECTION ( 'NONE',  ( 0.000000000000000000, 0.000000000000000000, 1.000000000000000000 ) ) ;
#285 = CARTESIAN_POINT ( 'NONE',  ( 0.000000000000000000, 0.000000000000000000, 5.199999999999982414 ) ) ;
#286 = AXIS2_PLACEMENT_3D ( 'NONE', #135, #208, #303 ) ;
#287 = DATE_TIME_ROLE ( 'creation_date' ) ;
#288 = PERSON_AND_ORGANIZATION_ROLE ( 'classification_officer' ) ;
#289 = ORIENTED_EDGE ( 'NONE', *, *, #224, .T. ) ;
#290 = APPROVAL ( #146, 'NEURÈENÝ' ) ;
#291 = CALENDAR_DATE ( 2022, 7, 7 ) ;
#292 = EDGE_LOOP ( 'NONE', ( #289, #108 ) ) ;
#293 = PERSON_AND_ORGANIZATION ( #6, #56 ) ;
#294 = CARTESIAN_POINT ( 'NONE',  ( 0.000000000000000000, 0.000000000000000000, 0.000000000000000000 ) ) ;
#295 = LOCAL_TIME ( 11, 56, 40.00000000000000000, #173 ) ;
#296 = PERSON_AND_ORGANIZATION_ROLE ( 'design_supplier' ) ;
#297 = FACE_OUTER_BOUND ( 'NONE', #54, .T. ) ;
#298 = EDGE_LOOP ( 'NONE', ( #106, #223, #203, #246 ) ) ;
#299 = DIRECTION ( 'NONE',  ( 1.000000000000000000, 0.000000000000000000, 0.000000000000000000 ) ) ;
#300 = EDGE_CURVE ( 'NONE', #267, #60, #245, .T. ) ;
#301 = EDGE_CURVE ( 'NONE', #171, #60, #143, .T. ) ;
#302 = AXIS2_PLACEMENT_3D ( 'NONE', #19, #187, #61 ) ;
#303 = DIRECTION ( 'NONE',  ( -1.000000000000000000, 0.000000000000000000, 0.000000000000000000 ) ) ;
#304 = DIRECTION ( 'NONE',  ( -1.000000000000000000, 1.224646799147353454E-16, 0.000000000000000000 ) ) ;
#305 = DIRECTION ( 'NONE',  ( -0.000000000000000000, -0.000000000000000000, -1.000000000000000000 ) ) ;
#306 = LINE ( 'NONE', #140, #275 ) ;
#307 = LOCAL_TIME ( 11, 56, 40.00000000000000000, #222 ) ;
ENDSEC;
END-ISO-10303-21;
