ISO-10303-21;
HEADER;
FILE_DESCRIPTION (( 'STEP AP203' ),
    '1' );
FILE_NAME ('55a7.STEP',
    '2022-07-07T09:53:12',
    ( '' ),
    ( '' ),
    'SwSTEP 2.0',
    'SolidWorks 2019',
    '' );
FILE_SCHEMA (( 'CONFIG_CONTROL_DESIGN' ));
ENDSEC;

DATA;
#1 = DIRECTION ( 'NONE',  ( 1.000000000000000000, 0.000000000000000000, 0.000000000000000000 ) ) ;
#2 = ORIENTED_EDGE ( 'NONE', *, *, #224, .F. ) ;
#3 = CYLINDRICAL_SURFACE ( 'NONE', #271, 8.000000000000000000 ) ;
#4 = FACE_OUTER_BOUND ( 'NONE', #134, .T. ) ;
#5 = CARTESIAN_POINT ( 'NONE',  ( 0.000000000000000000, 0.000000000000000000, 5.199999999999996625 ) ) ;
#6 = DIRECTION ( 'NONE',  ( -0.000000000000000000, -0.000000000000000000, -1.000000000000000000 ) ) ;
#7 = EDGE_LOOP ( 'NONE', ( #48, #148, #63, #87 ) ) ;
#8 = CARTESIAN_POINT ( 'NONE',  ( -5.100000000000001421, 0.000000000000000000, 5.199999999999996625 ) ) ;
#9 = AXIS2_PLACEMENT_3D ( 'NONE', #195, #149, #242 ) ;
#10 = ORIENTED_EDGE ( 'NONE', *, *, #162, .T. ) ;
#11 = AXIS2_PLACEMENT_3D ( 'NONE', #121, #22, #233 ) ;
#12 = AXIS2_PLACEMENT_3D ( 'NONE', #24, #6, #73 ) ;
#13 = PERSON_AND_ORGANIZATION ( #105, #124 ) ;
#14 = ORIENTED_EDGE ( 'NONE', *, *, #180, .F. ) ;
#15 = CC_DESIGN_SECURITY_CLASSIFICATION ( #176, ( #287 ) ) ;
#16 = APPROVAL_DATE_TIME ( #42, #228 ) ;
#17 = PERSON_AND_ORGANIZATION ( #105, #124 ) ;
#18 =( LENGTH_UNIT ( ) NAMED_UNIT ( * ) SI_UNIT ( .MILLI., .METRE. ) );
#19 = CARTESIAN_POINT ( 'NONE',  ( 0.000000000000000000, 0.000000000000000000, 5.199999999999996625 ) ) ;
#20 = VERTEX_POINT ( 'NONE', #66 ) ;
#21 = DIRECTION ( 'NONE',  ( -0.000000000000000000, -0.000000000000000000, -1.000000000000000000 ) ) ;
#22 = DIRECTION ( 'NONE',  ( 0.000000000000000000, 0.000000000000000000, 1.000000000000000000 ) ) ;
#23 = PLANE ( 'NONE',  #200 ) ;
#24 = CARTESIAN_POINT ( 'NONE',  ( 0.000000000000000000, 0.000000000000000000, 105.0000000000000142 ) ) ;
#25 = ORIENTED_EDGE ( 'NONE', *, *, #201, .F. ) ;
#26 = DIRECTION ( 'NONE',  ( -0.000000000000000000, -0.000000000000000000, -1.000000000000000000 ) ) ;
#27 = AXIS2_PLACEMENT_3D ( 'NONE', #211, #173, #1 ) ;
#28 = EDGE_CURVE ( 'NONE', #231, #168, #119, .T. ) ;
#29 = VERTEX_POINT ( 'NONE', #142 ) ;
#30 = CARTESIAN_POINT ( 'NONE',  ( -8.000000000000000000, 0.000000000000000000, 0.000000000000000000 ) ) ;
#31 = EDGE_CURVE ( 'NONE', #109, #151, #136, .T. ) ;
#32 = CIRCLE ( 'NONE', #54, 5.100000000000001421 ) ;
#33 = CC_DESIGN_PERSON_AND_ORGANIZATION_ASSIGNMENT ( #85, #59, ( #101 ) ) ;
#34 = LOCAL_TIME ( 11, 53, 12.00000000000000000, #273 ) ;
#35 = CIRCLE ( 'NONE', #163, 8.000000000000000000 ) ;
#36 = APPROVAL_DATE_TIME ( #154, #103 ) ;
#37 = ORIENTED_EDGE ( 'NONE', *, *, #28, .T. ) ;
#38 = COORDINATED_UNIVERSAL_TIME_OFFSET ( 1, 0, .AHEAD. ) ;
#39 = APPROVAL_STATUS ( 'not_yet_approved' ) ;
#40 = APPLICATION_CONTEXT ( 'configuration controlled 3d designs of mechanical parts and assemblies' ) ;
#41 = ADVANCED_FACE ( 'NONE', ( #99, #171 ), #23, .T. ) ;
#42 = DATE_AND_TIME ( #137, #130 ) ;
#43 = DIRECTION ( 'NONE',  ( 1.000000000000000000, 0.000000000000000000, 0.000000000000000000 ) ) ;
#44 = ORIENTED_EDGE ( 'NONE', *, *, #132, .T. ) ;
#45 = DIRECTION ( 'NONE',  ( 0.000000000000000000, 0.000000000000000000, 1.000000000000000000 ) ) ;
#46 = DIRECTION ( 'NONE',  ( -1.000000000000000000, 1.224646799147353454E-16, 0.000000000000000000 ) ) ;
#47 = CC_DESIGN_APPROVAL ( #228, ( #131 ) ) ;
#48 = ORIENTED_EDGE ( 'NONE', *, *, #77, .F. ) ;
#49 = CARTESIAN_POINT ( 'NONE',  ( 0.000000000000000000, 0.000000000000000000, 5.199999999999996625 ) ) ;
#50 = ORIENTED_EDGE ( 'NONE', *, *, #243, .T. ) ;
#51 = DIRECTION ( 'NONE',  ( 1.000000000000000000, 0.000000000000000000, 0.000000000000000000 ) ) ;
#52 = ORIENTED_EDGE ( 'NONE', *, *, #270, .F. ) ;
#53 = CARTESIAN_POINT ( 'NONE',  ( 0.000000000000000000, 0.000000000000000000, 105.0000000000000142 ) ) ;
#54 = AXIS2_PLACEMENT_3D ( 'NONE', #64, #45, #43 ) ;
#55 = LOCAL_TIME ( 11, 53, 12.00000000000000000, #204 ) ;
#56 = PRODUCT_RELATED_PRODUCT_CATEGORY ( 'detail', '', ( #101 ) ) ;
#57 = VERTEX_POINT ( 'NONE', #288 ) ;
#58 = PERSON_AND_ORGANIZATION ( #105, #124 ) ;
#59 = PERSON_AND_ORGANIZATION_ROLE ( 'design_owner' ) ;
#60 = ORIENTED_EDGE ( 'NONE', *, *, #214, .T. ) ;
#61 = ADVANCED_FACE ( 'NONE', ( #71 ), #102, .F. ) ;
#62 = APPROVAL_ROLE ( '' ) ;
#63 = ORIENTED_EDGE ( 'NONE', *, *, #116, .T. ) ;
#64 = CARTESIAN_POINT ( 'NONE',  ( 0.000000000000000000, 0.000000000000000000, 5.199999999999996625 ) ) ;
#65 = CARTESIAN_POINT ( 'NONE',  ( 0.000000000000000000, 0.000000000000000000, 105.0000000000000142 ) ) ;
#66 = CARTESIAN_POINT ( 'NONE',  ( 8.000000000000000000, 9.797174393178825657E-16, 5.000000000000000000 ) ) ;
#67 = DIRECTION ( 'NONE',  ( 1.000000000000000000, 0.000000000000000000, 0.000000000000000000 ) ) ;
#68 = CARTESIAN_POINT ( 'NONE',  ( -5.300000000000000711, 6.490628035480972910E-16, 5.199999999999996625 ) ) ;
#69 = CIRCLE ( 'NONE', #129, 0.1999999999999996503 ) ;
#70 = LOCAL_TIME ( 11, 53, 12.00000000000000000, #38 ) ;
#71 = FACE_OUTER_BOUND ( 'NONE', #205, .T. ) ;
#72 = CARTESIAN_POINT ( 'NONE',  ( 8.000000000000000000, 9.797174393178825657E-16, 5.000000000000000000 ) ) ;
#73 = DIRECTION ( 'NONE',  ( -1.000000000000000000, 0.000000000000000000, 0.000000000000000000 ) ) ;
#74 = ORIENTED_EDGE ( 'NONE', *, *, #132, .F. ) ;
#75 = DIRECTION ( 'NONE',  ( 0.000000000000000000, 0.000000000000000000, 1.000000000000000000 ) ) ;
#76 = DIRECTION ( 'NONE',  ( 1.000000000000000000, 0.000000000000000000, 0.000000000000000000 ) ) ;
#77 = EDGE_CURVE ( 'NONE', #20, #179, #244, .T. ) ;
#78 = EDGE_LOOP ( 'NONE', ( #257, #238 ) ) ;
#79 = AXIS2_PLACEMENT_3D ( 'NONE', #122, #198, #76 ) ;
#80 = CC_DESIGN_PERSON_AND_ORGANIZATION_ASSIGNMENT ( #17, #251, ( #131 ) ) ;
#81 = PERSON_AND_ORGANIZATION ( #105, #124 ) ;
#82 = DATE_AND_TIME ( #158, #70 ) ;
#83 = CC_DESIGN_PERSON_AND_ORGANIZATION_ASSIGNMENT ( #178, #84, ( #176 ) ) ;
#84 = PERSON_AND_ORGANIZATION_ROLE ( 'classification_officer' ) ;
#85 = PERSON_AND_ORGANIZATION ( #105, #124 ) ;
#86 = ORIENTED_EDGE ( 'NONE', *, *, #270, .T. ) ;
#87 = ORIENTED_EDGE ( 'NONE', *, *, #278, .F. ) ;
#88 = UNCERTAINTY_MEASURE_WITH_UNIT (LENGTH_MEASURE( 1.000000000000000082E-05 ), #18, 'distance_accuracy_value', 'NONE');
#89 = DIRECTION ( 'NONE',  ( 0.000000000000000000, 0.000000000000000000, -1.000000000000000000 ) ) ;
#90 = CARTESIAN_POINT ( 'NONE',  ( -5.100000000000001421, 0.000000000000000000, 105.0000000000000142 ) ) ;
#91 = VECTOR ( 'NONE', #92, 1000.000000000000000 ) ;
#92 = DIRECTION ( 'NONE',  ( -0.000000000000000000, -0.000000000000000000, -1.000000000000000000 ) ) ;
#93 = CYLINDRICAL_SURFACE ( 'NONE', #299, 8.000000000000000000 ) ;
#94 = CC_DESIGN_PERSON_AND_ORGANIZATION_ASSIGNMENT ( #81, #304, ( #287 ) ) ;
#95 = VERTEX_POINT ( 'NONE', #8 ) ;
#96 = CARTESIAN_POINT ( 'NONE',  ( -8.000000000000000000, 0.000000000000000000, 5.000000000000000000 ) ) ;
#97 = DIRECTION ( 'NONE',  ( 1.000000000000000000, 0.000000000000000000, -0.000000000000000000 ) ) ;
#98 = DIRECTION ( 'NONE',  ( 1.224646799147353207E-16, 1.000000000000000000, -0.000000000000000000 ) ) ;
#99 = FACE_BOUND ( 'NONE', #139, .T. ) ;
#100 = DIRECTION ( 'NONE',  ( -1.000000000000000000, 0.000000000000000000, 0.000000000000000000 ) ) ;
#101 = PRODUCT ( '55a7', '55a7', '', ( #235 ) ) ;
#102 = TOROIDAL_SURFACE ( 'NONE', #222, 5.300000000000000711, 0.2000000000000000111 ) ;
#103 = APPROVAL ( #110, 'NEURÈENÝ' ) ;
#104 = APPROVAL ( #279, 'NEURÈENÝ' ) ;
#105 = PERSON ( 'NEURÈENÝ', 'NEURÈENÝ', 'NEURÈENÝ', ('NEURÈENÝ'), ('NEURÈENÝ'), ('NEURÈENÝ') ) ;
#106 = APPROVAL_DATE_TIME ( #250, #104 ) ;
#107 = AXIS2_PLACEMENT_3D ( 'NONE', #53, #26, #213 ) ;
#108 = AXIS2_PLACEMENT_3D ( 'NONE', #19, #172, #67 ) ;
#109 = VERTEX_POINT ( 'NONE', #189 ) ;
#110 = APPROVAL_STATUS ( 'not_yet_approved' ) ;
#111 = ADVANCED_FACE ( 'NONE', ( #4 ), #266, .T. ) ;
#112 = CALENDAR_DATE ( 2022, 7, 7 ) ;
#113 = FACE_OUTER_BOUND ( 'NONE', #145, .T. ) ;
#114 = ORIENTED_EDGE ( 'NONE', *, *, #201, .T. ) ;
#115 = DIRECTION ( 'NONE',  ( -0.000000000000000000, -0.000000000000000000, -1.000000000000000000 ) ) ;
#116 = EDGE_CURVE ( 'NONE', #29, #209, #259, .T. ) ;
#117 = CARTESIAN_POINT ( 'NONE',  ( 5.100000000000001421, 6.245698675651502811E-16, 5.199999999999996625 ) ) ;
#118 = AXIS2_PLACEMENT_3D ( 'NONE', #191, #220, #146 ) ;
#119 = LINE ( 'NONE', #234, #91 ) ;
#120 =( NAMED_UNIT ( * ) SI_UNIT ( $, .STERADIAN. ) SOLID_ANGLE_UNIT ( ) );
#121 = CARTESIAN_POINT ( 'NONE',  ( 0.000000000000000000, 0.000000000000000000, 0.000000000000000000 ) ) ;
#122 = CARTESIAN_POINT ( 'NONE',  ( 0.000000000000000000, 0.000000000000000000, 5.000000000000000000 ) ) ;
#123 = LINE ( 'NONE', #90, #194 ) ;
#124 = ORGANIZATION ( 'NEURÈENÝ', 'NEURÈENÝ', '' ) ;
#125 = ADVANCED_FACE ( 'NONE', ( #170 ), #93, .T. ) ;
#126 = ORIENTED_EDGE ( 'NONE', *, *, #278, .T. ) ;
#127 = DIRECTION ( 'NONE',  ( 1.000000000000000000, 0.000000000000000000, 0.000000000000000000 ) ) ;
#128 = CIRCLE ( 'NONE', #275, 8.000000000000000000 ) ;
#129 = AXIS2_PLACEMENT_3D ( 'NONE', #267, #239, #89 ) ;
#130 = LOCAL_TIME ( 11, 53, 12.00000000000000000, #161 ) ;
#131 = PRODUCT_DEFINITION ( 'NEZNÁMÝ', '', #287, #165 ) ;
#132 = EDGE_CURVE ( 'NONE', #209, #29, #128, .T. ) ;
#133 = CALENDAR_DATE ( 2022, 7, 7 ) ;
#134 = EDGE_LOOP ( 'NONE', ( #203, #37, #187, #174 ) ) ;
#135 = EDGE_CURVE ( 'NONE', #179, #20, #35, .T. ) ;
#136 = CIRCLE ( 'NONE', #252, 5.300000000000000711 ) ;
#137 = CALENDAR_DATE ( 2022, 7, 7 ) ;
#138 = FACE_OUTER_BOUND ( 'NONE', #265, .T. ) ;
#139 = EDGE_LOOP ( 'NONE', ( #283, #114 ) ) ;
#140 = DIRECTION ( 'NONE',  ( -0.000000000000000000, -0.000000000000000000, -1.000000000000000000 ) ) ;
#141 = FACE_OUTER_BOUND ( 'NONE', #274, .T. ) ;
#142 = CARTESIAN_POINT ( 'NONE',  ( 8.000000000000000000, 9.797174393178825657E-16, 0.000000000000000000 ) ) ;
#143 = APPLICATION_PROTOCOL_DEFINITION ( 'international standard', 'config_control_design', 1994, #40 ) ;
#144 = CARTESIAN_POINT ( 'NONE',  ( 5.100000000000001421, 6.245698675651502811E-16, 105.0000000000000142 ) ) ;
#145 = EDGE_LOOP ( 'NONE', ( #307, #10 ) ) ;
#146 = DIRECTION ( 'NONE',  ( 1.000000000000000000, 0.000000000000000000, 0.000000000000000000 ) ) ;
#147 = ADVANCED_FACE ( 'NONE', ( #197 ), #269, .F. ) ;
#148 = ORIENTED_EDGE ( 'NONE', *, *, #248, .T. ) ;
#149 = DIRECTION ( 'NONE',  ( -0.000000000000000000, -0.000000000000000000, -1.000000000000000000 ) ) ;
#150 = TOROIDAL_SURFACE ( 'NONE', #108, 5.300000000000000711, 0.2000000000000000111 ) ;
#151 = VERTEX_POINT ( 'NONE', #175 ) ;
#152 = APPROVAL_PERSON_ORGANIZATION ( #276, #103, #300 ) ;
#153 = CALENDAR_DATE ( 2022, 7, 7 ) ;
#154 = DATE_AND_TIME ( #153, #246 ) ;
#155 = APPROVAL_ROLE ( '' ) ;
#156 = ADVANCED_FACE ( 'NONE', ( #141 ), #306, .T. ) ;
#157 = VECTOR ( 'NONE', #115, 1000.000000000000000 ) ;
#158 = CALENDAR_DATE ( 2022, 7, 7 ) ;
#159 = CC_DESIGN_APPROVAL ( #103, ( #287 ) ) ;
#160 = ORIENTED_EDGE ( 'NONE', *, *, #186, .T. ) ;
#161 = COORDINATED_UNIVERSAL_TIME_OFFSET ( 1, 0, .AHEAD. ) ;
#162 = EDGE_CURVE ( 'NONE', #231, #57, #208, .T. ) ;
#163 = AXIS2_PLACEMENT_3D ( 'NONE', #282, #167, #199 ) ;
#164 = CARTESIAN_POINT ( 'NONE',  ( 0.000000000000000000, 0.000000000000000000, 5.000000000000000000 ) ) ;
#165 = DESIGN_CONTEXT ( 'detailed design', #280, 'design' ) ;
#166 =( NAMED_UNIT ( * ) PLANE_ANGLE_UNIT ( ) SI_UNIT ( $, .RADIAN. ) );
#167 = DIRECTION ( 'NONE',  ( 0.000000000000000000, 0.000000000000000000, 1.000000000000000000 ) ) ;
#168 = VERTEX_POINT ( 'NONE', #117 ) ;
#169 = CARTESIAN_POINT ( 'NONE',  ( 0.000000000000000000, 0.000000000000000000, 0.000000000000000000 ) ) ;
#170 = FACE_OUTER_BOUND ( 'NONE', #7, .T. ) ;
#171 = FACE_OUTER_BOUND ( 'NONE', #78, .T. ) ;
#172 = DIRECTION ( 'NONE',  ( 0.000000000000000000, 0.000000000000000000, 1.000000000000000000 ) ) ;
#173 = DIRECTION ( 'NONE',  ( 0.000000000000000000, 0.000000000000000000, 1.000000000000000000 ) ) ;
#174 = ORIENTED_EDGE ( 'NONE', *, *, #186, .F. ) ;
#175 = CARTESIAN_POINT ( 'NONE',  ( -5.300000000000000711, 6.490628035480971924E-16, 4.999999999999998224 ) ) ;
#176 = SECURITY_CLASSIFICATION ( '', '', #206 ) ;
#177 = CIRCLE ( 'NONE', #27, 5.100000000000001421 ) ;
#178 = PERSON_AND_ORGANIZATION ( #105, #124 ) ;
#179 = VERTEX_POINT ( 'NONE', #96 ) ;
#180 = EDGE_CURVE ( 'NONE', #168, #95, #263, .T. ) ;
#181 = DATE_TIME_ROLE ( 'classification_date' ) ;
#182 = DIRECTION ( 'NONE',  ( 0.000000000000000000, 0.000000000000000000, 1.000000000000000000 ) ) ;
#183 = SHAPE_DEFINITION_REPRESENTATION ( #221, #249 ) ;
#184 = DIRECTION ( 'NONE',  ( 1.000000000000000000, 0.000000000000000000, 0.000000000000000000 ) ) ;
#185 = ORIENTED_EDGE ( 'NONE', *, *, #248, .F. ) ;
#186 = EDGE_CURVE ( 'NONE', #57, #95, #123, .T. ) ;
#187 = ORIENTED_EDGE ( 'NONE', *, *, #180, .T. ) ;
#188 = CARTESIAN_POINT ( 'NONE',  ( 0.000000000000000000, 0.000000000000000000, 5.000000000000000000 ) ) ;
#189 = CARTESIAN_POINT ( 'NONE',  ( 5.300000000000000711, 0.000000000000000000, 4.999999999999998224 ) ) ;
#190 = ORIENTED_EDGE ( 'NONE', *, *, #31, .F. ) ;
#191 = CARTESIAN_POINT ( 'NONE',  ( 0.000000000000000000, 0.000000000000000000, 0.000000000000000000 ) ) ;
#192 = DIRECTION ( 'NONE',  ( 1.000000000000000000, 0.000000000000000000, 0.000000000000000000 ) ) ;
#193 = AXIS2_PLACEMENT_3D ( 'NONE', #49, #262, #51 ) ;
#194 = VECTOR ( 'NONE', #290, 1000.000000000000000 ) ;
#195 = CARTESIAN_POINT ( 'NONE',  ( 0.000000000000000000, 0.000000000000000000, 5.000000000000000000 ) ) ;
#196 = DIRECTION ( 'NONE',  ( 0.000000000000000000, 0.000000000000000000, 1.000000000000000000 ) ) ;
#197 = FACE_OUTER_BOUND ( 'NONE', #212, .T. ) ;
#198 = DIRECTION ( 'NONE',  ( 0.000000000000000000, 0.000000000000000000, 1.000000000000000000 ) ) ;
#199 = DIRECTION ( 'NONE',  ( 1.000000000000000000, 0.000000000000000000, 0.000000000000000000 ) ) ;
#200 = AXIS2_PLACEMENT_3D ( 'NONE', #164, #260, #97 ) ;
#201 = EDGE_CURVE ( 'NONE', #151, #109, #216, .T. ) ;
#202 = AXIS2_PLACEMENT_3D ( 'NONE', #210, #182, #305 ) ;
#203 = ORIENTED_EDGE ( 'NONE', *, *, #162, .F. ) ;
#204 = COORDINATED_UNIVERSAL_TIME_OFFSET ( 1, 0, .AHEAD. ) ;
#205 = EDGE_LOOP ( 'NONE', ( #52, #60, #190, #302 ) ) ;
#206 = SECURITY_CLASSIFICATION_LEVEL ( 'unclassified' ) ;
#207 = DIRECTION ( 'NONE',  ( -1.000000000000000000, 0.000000000000000000, 0.000000000000000000 ) ) ;
#208 = CIRCLE ( 'NONE', #297, 5.100000000000001421 ) ;
#209 = VERTEX_POINT ( 'NONE', #30 ) ;
#210 = CARTESIAN_POINT ( 'NONE',  ( 0.000000000000000000, 0.000000000000000000, 105.0000000000000142 ) ) ;
#211 = CARTESIAN_POINT ( 'NONE',  ( 0.000000000000000000, 0.000000000000000000, 105.0000000000000142 ) ) ;
#212 = EDGE_LOOP ( 'NONE', ( #74, #268 ) ) ;
#213 = DIRECTION ( 'NONE',  ( -1.000000000000000000, 0.000000000000000000, 0.000000000000000000 ) ) ;
#214 = EDGE_CURVE ( 'NONE', #95, #151, #286, .T. ) ;
#215 = EDGE_LOOP ( 'NONE', ( #247, #14, #50, #25 ) ) ;
#216 = CIRCLE ( 'NONE', #9, 5.300000000000000711 ) ;
#217 = APPROVAL_PERSON_ORGANIZATION ( #13, #104, #155 ) ;
#218 = DIRECTION ( 'NONE',  ( 1.000000000000000000, 0.000000000000000000, 0.000000000000000000 ) ) ;
#219 = CARTESIAN_POINT ( 'NONE',  ( 0.000000000000000000, 0.000000000000000000, 5.000000000000000000 ) ) ;
#220 = DIRECTION ( 'NONE',  ( 0.000000000000000000, 0.000000000000000000, 1.000000000000000000 ) ) ;
#221 = PRODUCT_DEFINITION_SHAPE ( 'NONE', 'NONE',  #131 ) ;
#222 = AXIS2_PLACEMENT_3D ( 'NONE', #5, #196, #291 ) ;
#223 = CC_DESIGN_DATE_AND_TIME_ASSIGNMENT ( #255, #181, ( #176 ) ) ;
#224 = EDGE_CURVE ( 'NONE', #57, #231, #177, .T. ) ;
#225 = CC_DESIGN_PERSON_AND_ORGANIZATION_ASSIGNMENT ( #58, #229, ( #287 ) ) ;
#226 = DATE_TIME_ROLE ( 'creation_date' ) ;
#227 = CC_DESIGN_APPROVAL ( #104, ( #176 ) ) ;
#228 = APPROVAL ( #39, 'NEURÈENÝ' ) ;
#229 = PERSON_AND_ORGANIZATION_ROLE ( 'design_supplier' ) ;
#230 = LINE ( 'NONE', #284, #157 ) ;
#231 = VERTEX_POINT ( 'NONE', #144 ) ;
#232 = PLANE ( 'NONE',  #202 ) ;
#233 = DIRECTION ( 'NONE',  ( 1.000000000000000000, 0.000000000000000000, -0.000000000000000000 ) ) ;
#234 = CARTESIAN_POINT ( 'NONE',  ( 5.100000000000001421, 6.245698675651502811E-16, 105.0000000000000142 ) ) ;
#235 = MECHANICAL_CONTEXT ( 'NONE', #40, 'mechanical' ) ;
#236 = CARTESIAN_POINT ( 'NONE',  ( 0.000000000000000000, 0.000000000000000000, 5.000000000000000000 ) ) ;
#237 = CLOSED_SHELL ( 'NONE', ( #61, #111, #125, #272, #41, #147, #156, #296, #303 ) ) ;
#238 = ORIENTED_EDGE ( 'NONE', *, *, #77, .T. ) ;
#239 = DIRECTION ( 'NONE',  ( 0.000000000000000000, -1.000000000000000000, 0.000000000000000000 ) ) ;
#240 = ORIENTED_EDGE ( 'NONE', *, *, #135, .F. ) ;
#241 = APPROVAL_PERSON_ORGANIZATION ( #256, #228, #62 ) ;
#242 = DIRECTION ( 'NONE',  ( 1.000000000000000000, 0.000000000000000000, 0.000000000000000000 ) ) ;
#243 = EDGE_CURVE ( 'NONE', #168, #109, #69, .T. ) ;
#244 = CIRCLE ( 'NONE', #79, 8.000000000000000000 ) ;
#245 = MANIFOLD_SOLID_BREP ( 'Zaoblit1', #237 ) ;
#246 = LOCAL_TIME ( 11, 53, 12.00000000000000000, #253 ) ;
#247 = ORIENTED_EDGE ( 'NONE', *, *, #214, .F. ) ;
#248 = EDGE_CURVE ( 'NONE', #20, #29, #258, .T. ) ;
#249 = ADVANCED_BREP_SHAPE_REPRESENTATION ( '55a7', ( #245, #254 ), #264 ) ;
#250 = DATE_AND_TIME ( #112, #55 ) ;
#251 = PERSON_AND_ORGANIZATION_ROLE ( 'creator' ) ;
#252 = AXIS2_PLACEMENT_3D ( 'NONE', #219, #293, #192 ) ;
#253 = COORDINATED_UNIVERSAL_TIME_OFFSET ( 1, 0, .AHEAD. ) ;
#254 = AXIS2_PLACEMENT_3D ( 'NONE', #169, #277, #184 ) ;
#255 = DATE_AND_TIME ( #133, #34 ) ;
#256 = PERSON_AND_ORGANIZATION ( #105, #124 ) ;
#257 = ORIENTED_EDGE ( 'NONE', *, *, #135, .T. ) ;
#258 = LINE ( 'NONE', #72, #301 ) ;
#259 = CIRCLE ( 'NONE', #118, 8.000000000000000000 ) ;
#260 = DIRECTION ( 'NONE',  ( 0.000000000000000000, 0.000000000000000000, 1.000000000000000000 ) ) ;
#261 = APPLICATION_PROTOCOL_DEFINITION ( 'international standard', 'config_control_design', 1994, #280 ) ;
#262 = DIRECTION ( 'NONE',  ( 0.000000000000000000, 0.000000000000000000, 1.000000000000000000 ) ) ;
#263 = CIRCLE ( 'NONE', #193, 5.100000000000001421 ) ;
#264 =( GEOMETRIC_REPRESENTATION_CONTEXT ( 3 ) GLOBAL_UNCERTAINTY_ASSIGNED_CONTEXT ( ( #88 ) ) GLOBAL_UNIT_ASSIGNED_CONTEXT ( ( #18, #166, #120 ) ) REPRESENTATION_CONTEXT ( 'NONE', 'WORKASPACE' ) );
#265 = EDGE_LOOP ( 'NONE', ( #185, #240, #126, #44 ) ) ;
#266 = CYLINDRICAL_SURFACE ( 'NONE', #12, 5.100000000000001421 ) ;
#267 = CARTESIAN_POINT ( 'NONE',  ( 5.300000000000000711, 0.000000000000000000, 5.199999999999996625 ) ) ;
#268 = ORIENTED_EDGE ( 'NONE', *, *, #116, .F. ) ;
#269 = PLANE ( 'NONE',  #11 ) ;
#270 = EDGE_CURVE ( 'NONE', #95, #168, #32, .T. ) ;
#271 = AXIS2_PLACEMENT_3D ( 'NONE', #188, #140, #207 ) ;
#272 = ADVANCED_FACE ( 'NONE', ( #138 ), #3, .T. ) ;
#273 = COORDINATED_UNIVERSAL_TIME_OFFSET ( 1, 0, .AHEAD. ) ;
#274 = EDGE_LOOP ( 'NONE', ( #281, #2, #160, #86 ) ) ;
#275 = AXIS2_PLACEMENT_3D ( 'NONE', #292, #75, #127 ) ;
#276 = PERSON_AND_ORGANIZATION ( #105, #124 ) ;
#277 = DIRECTION ( 'NONE',  ( 0.000000000000000000, 0.000000000000000000, 1.000000000000000000 ) ) ;
#278 = EDGE_CURVE ( 'NONE', #179, #209, #230, .T. ) ;
#279 = APPROVAL_STATUS ( 'not_yet_approved' ) ;
#280 = APPLICATION_CONTEXT ( 'configuration controlled 3d designs of mechanical parts and assemblies' ) ;
#281 = ORIENTED_EDGE ( 'NONE', *, *, #28, .F. ) ;
#282 = CARTESIAN_POINT ( 'NONE',  ( 0.000000000000000000, 0.000000000000000000, 5.000000000000000000 ) ) ;
#283 = ORIENTED_EDGE ( 'NONE', *, *, #31, .T. ) ;
#284 = CARTESIAN_POINT ( 'NONE',  ( -8.000000000000000000, 0.000000000000000000, 5.000000000000000000 ) ) ;
#285 = DIRECTION ( 'NONE',  ( -0.000000000000000000, -0.000000000000000000, -1.000000000000000000 ) ) ;
#286 = CIRCLE ( 'NONE', #295, 0.1999999999999996503 ) ;
#287 = PRODUCT_DEFINITION_FORMATION_WITH_SPECIFIED_SOURCE ( 'LIBOVOLNÝ', '', #101, .NOT_KNOWN. ) ;
#288 = CARTESIAN_POINT ( 'NONE',  ( -5.100000000000001421, 0.000000000000000000, 105.0000000000000142 ) ) ;
#289 = FACE_OUTER_BOUND ( 'NONE', #215, .T. ) ;
#290 = DIRECTION ( 'NONE',  ( -0.000000000000000000, -0.000000000000000000, -1.000000000000000000 ) ) ;
#291 = DIRECTION ( 'NONE',  ( 1.000000000000000000, 0.000000000000000000, 0.000000000000000000 ) ) ;
#292 = CARTESIAN_POINT ( 'NONE',  ( 0.000000000000000000, 0.000000000000000000, 0.000000000000000000 ) ) ;
#293 = DIRECTION ( 'NONE',  ( -0.000000000000000000, -0.000000000000000000, -1.000000000000000000 ) ) ;
#294 = DIRECTION ( 'NONE',  ( 0.000000000000000000, 0.000000000000000000, 1.000000000000000000 ) ) ;
#295 = AXIS2_PLACEMENT_3D ( 'NONE', #68, #98, #46 ) ;
#296 = ADVANCED_FACE ( 'NONE', ( #113 ), #232, .T. ) ;
#297 = AXIS2_PLACEMENT_3D ( 'NONE', #65, #294, #218 ) ;
#298 = CC_DESIGN_DATE_AND_TIME_ASSIGNMENT ( #82, #226, ( #131 ) ) ;
#299 = AXIS2_PLACEMENT_3D ( 'NONE', #236, #285, #100 ) ;
#300 = APPROVAL_ROLE ( '' ) ;
#301 = VECTOR ( 'NONE', #21, 1000.000000000000000 ) ;
#302 = ORIENTED_EDGE ( 'NONE', *, *, #243, .F. ) ;
#303 = ADVANCED_FACE ( 'NONE', ( #289 ), #150, .F. ) ;
#304 = PERSON_AND_ORGANIZATION_ROLE ( 'creator' ) ;
#305 = DIRECTION ( 'NONE',  ( 1.000000000000000000, 0.000000000000000000, -0.000000000000000000 ) ) ;
#306 = CYLINDRICAL_SURFACE ( 'NONE', #107, 5.100000000000001421 ) ;
#307 = ORIENTED_EDGE ( 'NONE', *, *, #224, .T. ) ;
ENDSEC;
END-ISO-10303-21;
