ISO-10303-21;
HEADER;
FILE_DESCRIPTION (( 'STEP AP203' ),
    '1' );
FILE_NAME ('3350.STEP',
    '2023-02-12T11:56:08',
    ( '' ),
    ( '' ),
    'SwSTEP 2.0',
    'SolidWorks 2019',
    '' );
FILE_SCHEMA (( 'CONFIG_CONTROL_DESIGN' ));
ENDSEC;

DATA;
#1 = APPROVAL_PERSON_ORGANIZATION ( #175, #101, #137 ) ;
#2 = ADVANCED_FACE ( 'NONE', ( #122 ), #180, .T. ) ;
#3 = ORIENTED_EDGE ( 'NONE', *, *, #159, .T. ) ;
#4 = CIRCLE ( 'NONE', #32, 3.750000000000000000 ) ;
#5 = SHAPE_DEFINITION_REPRESENTATION ( #136, #143 ) ;
#6 = PRODUCT_DEFINITION_FORMATION_WITH_SPECIFIED_SOURCE ( 'LIBOVOLNÝ', '', #95, .NOT_KNOWN. ) ;
#7 = DESIGN_CONTEXT ( 'detailed design', #158, 'design' ) ;
#8 = VERTEX_POINT ( 'NONE', #170 ) ;
#9 = CARTESIAN_POINT ( 'NONE',  ( 3.750000000000000000, 4.592425496802573972E-16, 630.0000000000000000 ) ) ;
#10 = CC_DESIGN_PERSON_AND_ORGANIZATION_ASSIGNMENT ( #34, #149, ( #6 ) ) ;
#11 = DIRECTION ( 'NONE',  ( 1.000000000000000000, 0.000000000000000000, 0.000000000000000000 ) ) ;
#12 = MECHANICAL_CONTEXT ( 'NONE', #147, 'mechanical' ) ;
#13 = DIRECTION ( 'NONE',  ( 1.000000000000000000, 0.000000000000000000, -0.000000000000000000 ) ) ;
#14 = CARTESIAN_POINT ( 'NONE',  ( 0.000000000000000000, 0.000000000000000000, 0.000000000000000000 ) ) ;
#15 = ADVANCED_FACE ( 'NONE', ( #156 ), #97, .T. ) ;
#16 = CARTESIAN_POINT ( 'NONE',  ( 0.000000000000000000, 0.000000000000000000, 0.000000000000000000 ) ) ;
#17 = ORIENTED_EDGE ( 'NONE', *, *, #203, .T. ) ;
#18 = ORIENTED_EDGE ( 'NONE', *, *, #46, .F. ) ;
#19 = APPROVAL_ROLE ( '' ) ;
#20 = CIRCLE ( 'NONE', #125, 3.750000000000000000 ) ;
#21 = ORIENTED_EDGE ( 'NONE', *, *, #190, .T. ) ;
#22 = ORIENTED_EDGE ( 'NONE', *, *, #159, .F. ) ;
#23 = ORIENTED_EDGE ( 'NONE', *, *, #30, .T. ) ;
#24 = ORIENTED_EDGE ( 'NONE', *, *, #46, .T. ) ;
#25 = ADVANCED_FACE ( 'NONE', ( #146 ), #253, .T. ) ;
#26 = COORDINATED_UNIVERSAL_TIME_OFFSET ( 1, 0, .AHEAD. ) ;
#27 = EDGE_LOOP ( 'NONE', ( #155, #24, #3, #183 ) ) ;
#28 = CC_DESIGN_APPROVAL ( #105, ( #130 ) ) ;
#29 = CARTESIAN_POINT ( 'NONE',  ( 6.000000000000000888, 7.347880794884120722E-16, 5.000000000000000000 ) ) ;
#30 = EDGE_CURVE ( 'NONE', #211, #235, #138, .T. ) ;
#31 = CALENDAR_DATE ( 2023, 12, 2 ) ;
#32 = AXIS2_PLACEMENT_3D ( 'NONE', #77, #129, #107 ) ;
#33 = DIRECTION ( 'NONE',  ( 1.000000000000000000, 0.000000000000000000, 0.000000000000000000 ) ) ;
#34 = PERSON_AND_ORGANIZATION ( #112, #171 ) ;
#35 = CIRCLE ( 'NONE', #69, 6.000000000000000888 ) ;
#36 = COORDINATED_UNIVERSAL_TIME_OFFSET ( 1, 0, .AHEAD. ) ;
#37 = CALENDAR_DATE ( 2023, 12, 2 ) ;
#38 = CIRCLE ( 'NONE', #201, 3.750000000000000000 ) ;
#39 = CARTESIAN_POINT ( 'NONE',  ( 0.000000000000000000, 0.000000000000000000, 630.0000000000000000 ) ) ;
#40 = VERTEX_POINT ( 'NONE', #249 ) ;
#41 = CLOSED_SHELL ( 'NONE', ( #195, #15, #51, #174, #90, #2, #25 ) ) ;
#42 =( GEOMETRIC_REPRESENTATION_CONTEXT ( 3 ) GLOBAL_UNCERTAINTY_ASSIGNED_CONTEXT ( ( #115 ) ) GLOBAL_UNIT_ASSIGNED_CONTEXT ( ( #123, #117, #215 ) ) REPRESENTATION_CONTEXT ( 'NONE', 'WORKASPACE' ) );
#43 = ORIENTED_EDGE ( 'NONE', *, *, #208, .F. ) ;
#44 = CARTESIAN_POINT ( 'NONE',  ( 0.000000000000000000, 0.000000000000000000, 5.000000000000000000 ) ) ;
#45 = DIRECTION ( 'NONE',  ( 0.000000000000000000, 0.000000000000000000, 1.000000000000000000 ) ) ;
#46 = EDGE_CURVE ( 'NONE', #57, #52, #218, .T. ) ;
#47 = ORIENTED_EDGE ( 'NONE', *, *, #252, .F. ) ;
#48 = DIRECTION ( 'NONE',  ( -1.000000000000000000, 0.000000000000000000, 0.000000000000000000 ) ) ;
#49 = ORIENTED_EDGE ( 'NONE', *, *, #164, .T. ) ;
#50 = DATE_AND_TIME ( #37, #219 ) ;
#51 = ADVANCED_FACE ( 'NONE', ( #82 ), #197, .T. ) ;
#52 = VERTEX_POINT ( 'NONE', #96 ) ;
#53 = DIRECTION ( 'NONE',  ( 1.000000000000000000, 0.000000000000000000, 0.000000000000000000 ) ) ;
#54 = CC_DESIGN_PERSON_AND_ORGANIZATION_ASSIGNMENT ( #230, #152, ( #6 ) ) ;
#55 = CARTESIAN_POINT ( 'NONE',  ( 0.000000000000000000, 0.000000000000000000, 630.0000000000000000 ) ) ;
#56 = AXIS2_PLACEMENT_3D ( 'NONE', #221, #84, #126 ) ;
#57 = VERTEX_POINT ( 'NONE', #72 ) ;
#58 = DIRECTION ( 'NONE',  ( -1.000000000000000000, 0.000000000000000000, 0.000000000000000000 ) ) ;
#59 = CC_DESIGN_DATE_AND_TIME_ASSIGNMENT ( #100, #250, ( #130 ) ) ;
#60 = FACE_OUTER_BOUND ( 'NONE', #62, .T. ) ;
#61 = DIRECTION ( 'NONE',  ( -0.000000000000000000, -0.000000000000000000, -1.000000000000000000 ) ) ;
#62 = EDGE_LOOP ( 'NONE', ( #23, #49 ) ) ;
#63 = APPROVAL_ROLE ( '' ) ;
#64 = DATE_AND_TIME ( #248, #165 ) ;
#65 = CIRCLE ( 'NONE', #163, 3.750000000000000000 ) ;
#66 = DIRECTION ( 'NONE',  ( 1.000000000000000000, 0.000000000000000000, 0.000000000000000000 ) ) ;
#67 = PERSON_AND_ORGANIZATION ( #112, #171 ) ;
#68 = CALENDAR_DATE ( 2023, 12, 2 ) ;
#69 = AXIS2_PLACEMENT_3D ( 'NONE', #16, #86, #33 ) ;
#70 = PERSON_AND_ORGANIZATION ( #112, #171 ) ;
#71 = ORIENTED_EDGE ( 'NONE', *, *, #208, .T. ) ;
#72 = CARTESIAN_POINT ( 'NONE',  ( 3.750000000000000000, 4.592425496802573972E-16, 630.0000000000000000 ) ) ;
#73 = VERTEX_POINT ( 'NONE', #228 ) ;
#74 = EDGE_CURVE ( 'NONE', #57, #8, #4, .T. ) ;
#75 = AXIS2_PLACEMENT_3D ( 'NONE', #220, #222, #48 ) ;
#76 = DIRECTION ( 'NONE',  ( 1.000000000000000000, 0.000000000000000000, -0.000000000000000000 ) ) ;
#77 = CARTESIAN_POINT ( 'NONE',  ( 0.000000000000000000, 0.000000000000000000, 630.0000000000000000 ) ) ;
#78 = DIRECTION ( 'NONE',  ( 0.000000000000000000, 0.000000000000000000, 1.000000000000000000 ) ) ;
#79 = CARTESIAN_POINT ( 'NONE',  ( 0.000000000000000000, 0.000000000000000000, 5.000000000000000000 ) ) ;
#80 = PLANE ( 'NONE',  #181 ) ;
#81 = EDGE_LOOP ( 'NONE', ( #43, #205, #157, #88 ) ) ;
#82 = FACE_OUTER_BOUND ( 'NONE', #81, .T. ) ;
#83 = EDGE_LOOP ( 'NONE', ( #223, #22 ) ) ;
#84 = DIRECTION ( 'NONE',  ( 0.000000000000000000, 0.000000000000000000, 1.000000000000000000 ) ) ;
#85 = APPROVAL_STATUS ( 'not_yet_approved' ) ;
#86 = DIRECTION ( 'NONE',  ( 0.000000000000000000, 0.000000000000000000, 1.000000000000000000 ) ) ;
#87 = DIRECTION ( 'NONE',  ( -1.000000000000000000, 0.000000000000000000, 0.000000000000000000 ) ) ;
#88 = ORIENTED_EDGE ( 'NONE', *, *, #252, .T. ) ;
#89 = CARTESIAN_POINT ( 'NONE',  ( 0.000000000000000000, 0.000000000000000000, 630.0000000000000000 ) ) ;
#90 = ADVANCED_FACE ( 'NONE', ( #226 ), #231, .F. ) ;
#91 = SECURITY_CLASSIFICATION_LEVEL ( 'unclassified' ) ;
#92 = AXIS2_PLACEMENT_3D ( 'NONE', #89, #45, #13 ) ;
#93 = LOCAL_TIME ( 12, 56, 8.000000000000000000, #26 ) ;
#94 = DIRECTION ( 'NONE',  ( 0.000000000000000000, 0.000000000000000000, 1.000000000000000000 ) ) ;
#95 = PRODUCT ( '3350', '3350', '', ( #12 ) ) ;
#96 = CARTESIAN_POINT ( 'NONE',  ( 3.750000000000000000, 4.592425496802573972E-16, 5.000000000000000000 ) ) ;
#97 = CYLINDRICAL_SURFACE ( 'NONE', #179, 6.000000000000000888 ) ;
#98 = DIRECTION ( 'NONE',  ( 1.000000000000000000, 0.000000000000000000, 0.000000000000000000 ) ) ;
#99 = DIRECTION ( 'NONE',  ( 0.000000000000000000, 0.000000000000000000, 1.000000000000000000 ) ) ;
#100 = DATE_AND_TIME ( #68, #213 ) ;
#101 = APPROVAL ( #85, 'NEURÈENÝ' ) ;
#102 = PERSON_AND_ORGANIZATION_ROLE ( 'creator' ) ;
#103 = DIRECTION ( 'NONE',  ( 0.000000000000000000, 0.000000000000000000, 1.000000000000000000 ) ) ;
#104 = VECTOR ( 'NONE', #160, 1000.000000000000000 ) ;
#105 = APPROVAL ( #198, 'NEURÈENÝ' ) ;
#106 = LINE ( 'NONE', #142, #104 ) ;
#107 = DIRECTION ( 'NONE',  ( 1.000000000000000000, 0.000000000000000000, 0.000000000000000000 ) ) ;
#108 = CC_DESIGN_PERSON_AND_ORGANIZATION_ASSIGNMENT ( #70, #127, ( #194 ) ) ;
#109 = VECTOR ( 'NONE', #238, 1000.000000000000000 ) ;
#110 = ORIENTED_EDGE ( 'NONE', *, *, #111, .T. ) ;
#111 = EDGE_CURVE ( 'NONE', #73, #52, #65, .T. ) ;
#112 = PERSON ( 'NEURÈENÝ', 'NEURÈENÝ', 'NEURÈENÝ', ('NEURÈENÝ'), ('NEURÈENÝ'), ('NEURÈENÝ') ) ;
#113 = EDGE_CURVE ( 'NONE', #211, #234, #131, .T. ) ;
#114 = EDGE_LOOP ( 'NONE', ( #116, #209 ) ) ;
#115 = UNCERTAINTY_MEASURE_WITH_UNIT (LENGTH_MEASURE( 1.000000000000000082E-05 ), #123, 'distance_accuracy_value', 'NONE');
#116 = ORIENTED_EDGE ( 'NONE', *, *, #144, .T. ) ;
#117 =( NAMED_UNIT ( * ) PLANE_ANGLE_UNIT ( ) SI_UNIT ( $, .RADIAN. ) );
#118 = APPROVAL ( #184, 'NEURÈENÝ' ) ;
#119 = CARTESIAN_POINT ( 'NONE',  ( 0.000000000000000000, 0.000000000000000000, 5.000000000000000000 ) ) ;
#120 = PERSON_AND_ORGANIZATION ( #112, #171 ) ;
#121 = DIRECTION ( 'NONE',  ( -0.000000000000000000, -0.000000000000000000, -1.000000000000000000 ) ) ;
#122 = FACE_OUTER_BOUND ( 'NONE', #214, .T. ) ;
#123 =( LENGTH_UNIT ( ) NAMED_UNIT ( * ) SI_UNIT ( .MILLI., .METRE. ) );
#124 = CC_DESIGN_DATE_AND_TIME_ASSIGNMENT ( #167, #206, ( #194 ) ) ;
#125 = AXIS2_PLACEMENT_3D ( 'NONE', #55, #177, #254 ) ;
#126 = DIRECTION ( 'NONE',  ( 1.000000000000000000, 0.000000000000000000, 0.000000000000000000 ) ) ;
#127 = PERSON_AND_ORGANIZATION_ROLE ( 'classification_officer' ) ;
#128 = AXIS2_PLACEMENT_3D ( 'NONE', #39, #61, #58 ) ;
#129 = DIRECTION ( 'NONE',  ( 0.000000000000000000, 0.000000000000000000, 1.000000000000000000 ) ) ;
#130 = PRODUCT_DEFINITION ( 'NEZNÁMÝ', '', #6, #7 ) ;
#131 = LINE ( 'NONE', #229, #200 ) ;
#132 = CIRCLE ( 'NONE', #148, 6.000000000000000888 ) ;
#133 = CC_DESIGN_SECURITY_CLASSIFICATION ( #194, ( #6 ) ) ;
#134 = CARTESIAN_POINT ( 'NONE',  ( 0.000000000000000000, 0.000000000000000000, 5.000000000000000000 ) ) ;
#135 = APPROVAL_DATE_TIME ( #251, #105 ) ;
#136 = PRODUCT_DEFINITION_SHAPE ( 'NONE', 'NONE',  #130 ) ;
#137 = APPROVAL_ROLE ( '' ) ;
#138 = CIRCLE ( 'NONE', #169, 6.000000000000000888 ) ;
#139 = DIRECTION ( 'NONE',  ( 0.000000000000000000, 0.000000000000000000, 1.000000000000000000 ) ) ;
#140 = CARTESIAN_POINT ( 'NONE',  ( 0.000000000000000000, 0.000000000000000000, 0.000000000000000000 ) ) ;
#141 = CIRCLE ( 'NONE', #185, 6.000000000000000888 ) ;
#142 = CARTESIAN_POINT ( 'NONE',  ( 6.000000000000000888, 7.347880794884120722E-16, 5.000000000000000000 ) ) ;
#143 = ADVANCED_BREP_SHAPE_REPRESENTATION ( '3350', ( #207, #56 ), #42 ) ;
#144 = EDGE_CURVE ( 'NONE', #8, #57, #20, .T. ) ;
#145 = ORIENTED_EDGE ( 'NONE', *, *, #164, .F. ) ;
#146 = FACE_OUTER_BOUND ( 'NONE', #114, .T. ) ;
#147 = APPLICATION_CONTEXT ( 'configuration controlled 3d designs of mechanical parts and assemblies' ) ;
#148 = AXIS2_PLACEMENT_3D ( 'NONE', #14, #103, #66 ) ;
#149 = PERSON_AND_ORGANIZATION_ROLE ( 'design_supplier' ) ;
#150 = APPROVAL_PERSON_ORGANIZATION ( #120, #105, #63 ) ;
#151 = ORIENTED_EDGE ( 'NONE', *, *, #203, .F. ) ;
#152 = PERSON_AND_ORGANIZATION_ROLE ( 'creator' ) ;
#153 = DIRECTION ( 'NONE',  ( 1.000000000000000000, 0.000000000000000000, 0.000000000000000000 ) ) ;
#154 = CC_DESIGN_PERSON_AND_ORGANIZATION_ASSIGNMENT ( #199, #162, ( #95 ) ) ;
#155 = ORIENTED_EDGE ( 'NONE', *, *, #74, .F. ) ;
#156 = FACE_OUTER_BOUND ( 'NONE', #210, .T. ) ;
#157 = ORIENTED_EDGE ( 'NONE', *, *, #113, .T. ) ;
#158 = APPLICATION_CONTEXT ( 'configuration controlled 3d designs of mechanical parts and assemblies' ) ;
#159 = EDGE_CURVE ( 'NONE', #52, #73, #38, .T. ) ;
#160 = DIRECTION ( 'NONE',  ( -0.000000000000000000, -0.000000000000000000, -1.000000000000000000 ) ) ;
#161 = COORDINATED_UNIVERSAL_TIME_OFFSET ( 1, 0, .AHEAD. ) ;
#162 = PERSON_AND_ORGANIZATION_ROLE ( 'design_owner' ) ;
#163 = AXIS2_PLACEMENT_3D ( 'NONE', #236, #94, #53 ) ;
#164 = EDGE_CURVE ( 'NONE', #235, #211, #141, .T. ) ;
#165 = LOCAL_TIME ( 12, 56, 8.000000000000000000, #161 ) ;
#166 = DIRECTION ( 'NONE',  ( -1.000000000000000000, 0.000000000000000000, 0.000000000000000000 ) ) ;
#167 = DATE_AND_TIME ( #255, #224 ) ;
#168 = DIRECTION ( 'NONE',  ( 0.000000000000000000, 0.000000000000000000, 1.000000000000000000 ) ) ;
#169 = AXIS2_PLACEMENT_3D ( 'NONE', #192, #139, #11 ) ;
#170 = CARTESIAN_POINT ( 'NONE',  ( -3.750000000000000000, 0.000000000000000000, 630.0000000000000000 ) ) ;
#171 = ORGANIZATION ( 'NEURÈENÝ', 'NEURÈENÝ', '' ) ;
#172 = CARTESIAN_POINT ( 'NONE',  ( -3.750000000000000000, 0.000000000000000000, 630.0000000000000000 ) ) ;
#173 = EDGE_LOOP ( 'NONE', ( #47, #151 ) ) ;
#174 = ADVANCED_FACE ( 'NONE', ( #241, #60 ), #80, .T. ) ;
#175 = PERSON_AND_ORGANIZATION ( #112, #171 ) ;
#176 = APPLICATION_PROTOCOL_DEFINITION ( 'international standard', 'config_control_design', 1994, #147 ) ;
#177 = DIRECTION ( 'NONE',  ( 0.000000000000000000, 0.000000000000000000, 1.000000000000000000 ) ) ;
#178 = CYLINDRICAL_SURFACE ( 'NONE', #75, 3.750000000000000000 ) ;
#179 = AXIS2_PLACEMENT_3D ( 'NONE', #119, #245, #87 ) ;
#180 = CYLINDRICAL_SURFACE ( 'NONE', #128, 3.750000000000000000 ) ;
#181 = AXIS2_PLACEMENT_3D ( 'NONE', #134, #99, #237 ) ;
#182 = CARTESIAN_POINT ( 'NONE',  ( -6.000000000000000888, 0.000000000000000000, 5.000000000000000000 ) ) ;
#183 = ORIENTED_EDGE ( 'NONE', *, *, #190, .F. ) ;
#184 = APPROVAL_STATUS ( 'not_yet_approved' ) ;
#185 = AXIS2_PLACEMENT_3D ( 'NONE', #187, #233, #153 ) ;
#186 = DIRECTION ( 'NONE',  ( -0.000000000000000000, -0.000000000000000000, -1.000000000000000000 ) ) ;
#187 = CARTESIAN_POINT ( 'NONE',  ( 0.000000000000000000, 0.000000000000000000, 5.000000000000000000 ) ) ;
#188 = AXIS2_PLACEMENT_3D ( 'NONE', #44, #247, #166 ) ;
#189 = APPROVAL_PERSON_ORGANIZATION ( #227, #118, #19 ) ;
#190 = EDGE_CURVE ( 'NONE', #8, #73, #216, .T. ) ;
#191 = PRODUCT_RELATED_PRODUCT_CATEGORY ( 'detail', '', ( #95 ) ) ;
#192 = CARTESIAN_POINT ( 'NONE',  ( 0.000000000000000000, 0.000000000000000000, 5.000000000000000000 ) ) ;
#193 = COORDINATED_UNIVERSAL_TIME_OFFSET ( 1, 0, .AHEAD. ) ;
#194 = SECURITY_CLASSIFICATION ( '', '', #91 ) ;
#195 = ADVANCED_FACE ( 'NONE', ( #196 ), #178, .T. ) ;
#196 = FACE_OUTER_BOUND ( 'NONE', #27, .T. ) ;
#197 = CYLINDRICAL_SURFACE ( 'NONE', #188, 6.000000000000000888 ) ;
#198 = APPROVAL_STATUS ( 'not_yet_approved' ) ;
#199 = PERSON_AND_ORGANIZATION ( #112, #171 ) ;
#200 = VECTOR ( 'NONE', #186, 1000.000000000000000 ) ;
#201 = AXIS2_PLACEMENT_3D ( 'NONE', #79, #78, #98 ) ;
#202 = CARTESIAN_POINT ( 'NONE',  ( -6.000000000000000888, 0.000000000000000000, 0.000000000000000000 ) ) ;
#203 = EDGE_CURVE ( 'NONE', #40, #234, #132, .T. ) ;
#204 = APPROVAL_DATE_TIME ( #50, #118 ) ;
#205 = ORIENTED_EDGE ( 'NONE', *, *, #30, .F. ) ;
#206 = DATE_TIME_ROLE ( 'classification_date' ) ;
#207 = MANIFOLD_SOLID_BREP ( 'Pøidat vysunutím3', #41 ) ;
#208 = EDGE_CURVE ( 'NONE', #235, #40, #106, .T. ) ;
#209 = ORIENTED_EDGE ( 'NONE', *, *, #74, .T. ) ;
#210 = EDGE_LOOP ( 'NONE', ( #145, #71, #17, #242 ) ) ;
#211 = VERTEX_POINT ( 'NONE', #182 ) ;
#212 = VECTOR ( 'NONE', #121, 1000.000000000000000 ) ;
#213 = LOCAL_TIME ( 12, 56, 8.000000000000000000, #193 ) ;
#214 = EDGE_LOOP ( 'NONE', ( #18, #243, #21, #110 ) ) ;
#215 =( NAMED_UNIT ( * ) SI_UNIT ( $, .STERADIAN. ) SOLID_ANGLE_UNIT ( ) );
#216 = LINE ( 'NONE', #172, #109 ) ;
#217 = APPROVAL_DATE_TIME ( #64, #101 ) ;
#218 = LINE ( 'NONE', #9, #212 ) ;
#219 = LOCAL_TIME ( 12, 56, 8.000000000000000000, #225 ) ;
#220 = CARTESIAN_POINT ( 'NONE',  ( 0.000000000000000000, 0.000000000000000000, 630.0000000000000000 ) ) ;
#221 = CARTESIAN_POINT ( 'NONE',  ( 0.000000000000000000, 0.000000000000000000, 0.000000000000000000 ) ) ;
#222 = DIRECTION ( 'NONE',  ( -0.000000000000000000, -0.000000000000000000, -1.000000000000000000 ) ) ;
#223 = ORIENTED_EDGE ( 'NONE', *, *, #111, .F. ) ;
#224 = LOCAL_TIME ( 12, 56, 8.000000000000000000, #36 ) ;
#225 = COORDINATED_UNIVERSAL_TIME_OFFSET ( 1, 0, .AHEAD. ) ;
#226 = FACE_OUTER_BOUND ( 'NONE', #173, .T. ) ;
#227 = PERSON_AND_ORGANIZATION ( #112, #171 ) ;
#228 = CARTESIAN_POINT ( 'NONE',  ( -3.750000000000000000, 0.000000000000000000, 5.000000000000000000 ) ) ;
#229 = CARTESIAN_POINT ( 'NONE',  ( -6.000000000000000888, 0.000000000000000000, 5.000000000000000000 ) ) ;
#230 = PERSON_AND_ORGANIZATION ( #112, #171 ) ;
#231 = PLANE ( 'NONE',  #240 ) ;
#232 = CC_DESIGN_APPROVAL ( #118, ( #194 ) ) ;
#233 = DIRECTION ( 'NONE',  ( 0.000000000000000000, 0.000000000000000000, 1.000000000000000000 ) ) ;
#234 = VERTEX_POINT ( 'NONE', #202 ) ;
#235 = VERTEX_POINT ( 'NONE', #29 ) ;
#236 = CARTESIAN_POINT ( 'NONE',  ( 0.000000000000000000, 0.000000000000000000, 5.000000000000000000 ) ) ;
#237 = DIRECTION ( 'NONE',  ( 1.000000000000000000, 0.000000000000000000, -0.000000000000000000 ) ) ;
#238 = DIRECTION ( 'NONE',  ( -0.000000000000000000, -0.000000000000000000, -1.000000000000000000 ) ) ;
#239 = CC_DESIGN_PERSON_AND_ORGANIZATION_ASSIGNMENT ( #67, #102, ( #130 ) ) ;
#240 = AXIS2_PLACEMENT_3D ( 'NONE', #140, #168, #76 ) ;
#241 = FACE_BOUND ( 'NONE', #83, .T. ) ;
#242 = ORIENTED_EDGE ( 'NONE', *, *, #113, .F. ) ;
#243 = ORIENTED_EDGE ( 'NONE', *, *, #144, .F. ) ;
#244 = CC_DESIGN_APPROVAL ( #101, ( #6 ) ) ;
#245 = DIRECTION ( 'NONE',  ( -0.000000000000000000, -0.000000000000000000, -1.000000000000000000 ) ) ;
#246 = APPLICATION_PROTOCOL_DEFINITION ( 'international standard', 'config_control_design', 1994, #158 ) ;
#247 = DIRECTION ( 'NONE',  ( -0.000000000000000000, -0.000000000000000000, -1.000000000000000000 ) ) ;
#248 = CALENDAR_DATE ( 2023, 12, 2 ) ;
#249 = CARTESIAN_POINT ( 'NONE',  ( 6.000000000000000888, 7.347880794884120722E-16, 0.000000000000000000 ) ) ;
#250 = DATE_TIME_ROLE ( 'creation_date' ) ;
#251 = DATE_AND_TIME ( #31, #93 ) ;
#252 = EDGE_CURVE ( 'NONE', #234, #40, #35, .T. ) ;
#253 = PLANE ( 'NONE',  #92 ) ;
#254 = DIRECTION ( 'NONE',  ( 1.000000000000000000, 0.000000000000000000, 0.000000000000000000 ) ) ;
#255 = CALENDAR_DATE ( 2023, 12, 2 ) ;
ENDSEC;
END-ISO-10303-21;
