ISO-10303-21;
HEADER;
FILE_DESCRIPTION (( 'STEP AP203' ),
    '1' );
FILE_NAME ('d7f8.STEP',
    '2023-02-12T12:33:21',
    ( '' ),
    ( '' ),
    'SwSTEP 2.0',
    'SolidWorks 2019',
    '' );
FILE_SCHEMA (( 'CONFIG_CONTROL_DESIGN' ));
ENDSEC;

DATA;
#1 = EDGE_LOOP ( 'NONE', ( #229, #205 ) ) ;
#2 = DIRECTION ( 'NONE',  ( 0.000000000000000000, 0.000000000000000000, 1.000000000000000000 ) ) ;
#3 = DATE_AND_TIME ( #103, #231 ) ;
#4 = AXIS2_PLACEMENT_3D ( 'NONE', #49, #207, #6 ) ;
#5 =( LENGTH_UNIT ( ) NAMED_UNIT ( * ) SI_UNIT ( .MILLI., .METRE. ) );
#6 = DIRECTION ( 'NONE',  ( -1.000000000000000000, 0.000000000000000000, 0.000000000000000000 ) ) ;
#7 = CLOSED_SHELL ( 'NONE', ( #33, #206, #119, #212, #110, #172, #170 ) ) ;
#8 = DIRECTION ( 'NONE',  ( 0.000000000000000000, 0.000000000000000000, 1.000000000000000000 ) ) ;
#9 = CALENDAR_DATE ( 2023, 12, 2 ) ;
#10 = LINE ( 'NONE', #163, #214 ) ;
#11 = APPROVAL_DATE_TIME ( #243, #179 ) ;
#12 = AXIS2_PLACEMENT_3D ( 'NONE', #107, #8, #90 ) ;
#13 = DIRECTION ( 'NONE',  ( 0.000000000000000000, 0.000000000000000000, 1.000000000000000000 ) ) ;
#14 = DIRECTION ( 'NONE',  ( 1.000000000000000000, 0.000000000000000000, -0.000000000000000000 ) ) ;
#15 = APPLICATION_PROTOCOL_DEFINITION ( 'international standard', 'config_control_design', 1994, #92 ) ;
#16 = AXIS2_PLACEMENT_3D ( 'NONE', #22, #56, #140 ) ;
#17 = SHAPE_DEFINITION_REPRESENTATION ( #82, #248 ) ;
#18 = DATE_AND_TIME ( #159, #216 ) ;
#19 = DIRECTION ( 'NONE',  ( 0.000000000000000000, 0.000000000000000000, 1.000000000000000000 ) ) ;
#20 = VERTEX_POINT ( 'NONE', #88 ) ;
#21 = COORDINATED_UNIVERSAL_TIME_OFFSET ( 1, 0, .AHEAD. ) ;
#22 = CARTESIAN_POINT ( 'NONE',  ( 0.000000000000000000, 0.000000000000000000, 3.000000000000000000 ) ) ;
#23 = PERSON_AND_ORGANIZATION_ROLE ( 'design_owner' ) ;
#24 = CARTESIAN_POINT ( 'NONE',  ( -4.000000000000000000, 0.000000000000000000, 3.000000000000000000 ) ) ;
#25 = APPROVAL_PERSON_ORGANIZATION ( #208, #136, #164 ) ;
#26 = CARTESIAN_POINT ( 'NONE',  ( 0.000000000000000000, 0.000000000000000000, 0.000000000000000000 ) ) ;
#27 = CARTESIAN_POINT ( 'NONE',  ( 0.000000000000000000, 0.000000000000000000, 3.000000000000000000 ) ) ;
#28 = CC_DESIGN_PERSON_AND_ORGANIZATION_ASSIGNMENT ( #185, #106, ( #39 ) ) ;
#29 = SECURITY_CLASSIFICATION_LEVEL ( 'unclassified' ) ;
#30 = CARTESIAN_POINT ( 'NONE',  ( -4.000000000000000000, 0.000000000000000000, 3.000000000000000000 ) ) ;
#31 = AXIS2_PLACEMENT_3D ( 'NONE', #247, #19, #54 ) ;
#32 = LINE ( 'NONE', #30, #242 ) ;
#33 = ADVANCED_FACE ( 'NONE', ( #51 ), #188, .T. ) ;
#34 = EDGE_LOOP ( 'NONE', ( #100, #68, #197, #150 ) ) ;
#35 = VERTEX_POINT ( 'NONE', #143 ) ;
#36 = EDGE_CURVE ( 'NONE', #158, #35, #238, .T. ) ;
#37 = AXIS2_PLACEMENT_3D ( 'NONE', #26, #102, #114 ) ;
#38 = FACE_OUTER_BOUND ( 'NONE', #104, .T. ) ;
#39 = PRODUCT_DEFINITION_FORMATION_WITH_SPECIFIED_SOURCE ( 'LIBOVOLNÝ', '', #130, .NOT_KNOWN. ) ;
#40 = ORIENTED_EDGE ( 'NONE', *, *, #124, .F. ) ;
#41 = FACE_OUTER_BOUND ( 'NONE', #155, .T. ) ;
#42 = ORIENTED_EDGE ( 'NONE', *, *, #36, .T. ) ;
#43 = ORIENTED_EDGE ( 'NONE', *, *, #245, .T. ) ;
#44 = EDGE_CURVE ( 'NONE', #35, #244, #78, .T. ) ;
#45 = PERSON ( 'NEURÈENÝ', 'NEURÈENÝ', 'NEURÈENÝ', ('NEURÈENÝ'), ('NEURÈENÝ'), ('NEURÈENÝ') ) ;
#46 = DIRECTION ( 'NONE',  ( 1.000000000000000000, 0.000000000000000000, 0.000000000000000000 ) ) ;
#47 = DIRECTION ( 'NONE',  ( 1.000000000000000000, 0.000000000000000000, 0.000000000000000000 ) ) ;
#48 = PERSON_AND_ORGANIZATION_ROLE ( 'classification_officer' ) ;
#49 = CARTESIAN_POINT ( 'NONE',  ( 0.000000000000000000, 0.000000000000000000, 250.0000000000000000 ) ) ;
#50 = CIRCLE ( 'NONE', #176, 2.250000000000000000 ) ;
#51 = FACE_OUTER_BOUND ( 'NONE', #141, .T. ) ;
#52 = DIRECTION ( 'NONE',  ( 1.000000000000000000, 0.000000000000000000, 0.000000000000000000 ) ) ;
#53 = DIRECTION ( 'NONE',  ( -0.000000000000000000, -0.000000000000000000, -1.000000000000000000 ) ) ;
#54 = DIRECTION ( 'NONE',  ( 1.000000000000000000, 0.000000000000000000, -0.000000000000000000 ) ) ;
#55 = ORIENTED_EDGE ( 'NONE', *, *, #148, .T. ) ;
#56 = DIRECTION ( 'NONE',  ( -0.000000000000000000, -0.000000000000000000, -1.000000000000000000 ) ) ;
#57 = AXIS2_PLACEMENT_3D ( 'NONE', #71, #151, #182 ) ;
#58 = ORIENTED_EDGE ( 'NONE', *, *, #65, .T. ) ;
#59 = APPROVAL_PERSON_ORGANIZATION ( #249, #195, #80 ) ;
#60 = DIRECTION ( 'NONE',  ( 1.000000000000000000, 0.000000000000000000, 0.000000000000000000 ) ) ;
#61 = EDGE_CURVE ( 'NONE', #192, #97, #32, .T. ) ;
#62 = DIRECTION ( 'NONE',  ( -0.000000000000000000, -0.000000000000000000, -1.000000000000000000 ) ) ;
#63 = COORDINATED_UNIVERSAL_TIME_OFFSET ( 1, 0, .AHEAD. ) ;
#64 =( NAMED_UNIT ( * ) SI_UNIT ( $, .STERADIAN. ) SOLID_ANGLE_UNIT ( ) );
#65 = EDGE_CURVE ( 'NONE', #97, #20, #253, .T. ) ;
#66 = CARTESIAN_POINT ( 'NONE',  ( 0.000000000000000000, 0.000000000000000000, 3.000000000000000000 ) ) ;
#67 = APPROVAL_STATUS ( 'not_yet_approved' ) ;
#68 = ORIENTED_EDGE ( 'NONE', *, *, #105, .T. ) ;
#69 = COORDINATED_UNIVERSAL_TIME_OFFSET ( 1, 0, .AHEAD. ) ;
#70 = FACE_OUTER_BOUND ( 'NONE', #77, .T. ) ;
#71 = CARTESIAN_POINT ( 'NONE',  ( 0.000000000000000000, 0.000000000000000000, 3.000000000000000000 ) ) ;
#72 = CIRCLE ( 'NONE', #157, 4.000000000000000000 ) ;
#73 = CC_DESIGN_APPROVAL ( #195, ( #218 ) ) ;
#74 = CC_DESIGN_PERSON_AND_ORGANIZATION_ASSIGNMENT ( #184, #23, ( #130 ) ) ;
#75 = DIRECTION ( 'NONE',  ( 0.000000000000000000, 0.000000000000000000, 1.000000000000000000 ) ) ;
#76 = CARTESIAN_POINT ( 'NONE',  ( 2.250000000000000000, 2.755455298081544285E-16, 250.0000000000000000 ) ) ;
#77 = EDGE_LOOP ( 'NONE', ( #81, #84 ) ) ;
#78 = CIRCLE ( 'NONE', #236, 2.250000000000000000 ) ;
#79 = VERTEX_POINT ( 'NONE', #131 ) ;
#80 = APPROVAL_ROLE ( '' ) ;
#81 = ORIENTED_EDGE ( 'NONE', *, *, #65, .F. ) ;
#82 = PRODUCT_DEFINITION_SHAPE ( 'NONE', 'NONE',  #218 ) ;
#83 = MANIFOLD_SOLID_BREP ( 'Pøidat vysunutím3', #7 ) ;
#84 = ORIENTED_EDGE ( 'NONE', *, *, #113, .F. ) ;
#85 = AXIS2_PLACEMENT_3D ( 'NONE', #180, #254, #52 ) ;
#86 = CC_DESIGN_DATE_AND_TIME_ASSIGNMENT ( #3, #125, ( #193 ) ) ;
#87 =( NAMED_UNIT ( * ) PLANE_ANGLE_UNIT ( ) SI_UNIT ( $, .RADIAN. ) );
#88 = CARTESIAN_POINT ( 'NONE',  ( 4.000000000000000000, 4.898587196589412829E-16, 0.000000000000000000 ) ) ;
#89 = APPROVAL_PERSON_ORGANIZATION ( #142, #179, #209 ) ;
#90 = DIRECTION ( 'NONE',  ( 1.000000000000000000, 0.000000000000000000, 0.000000000000000000 ) ) ;
#91 = CALENDAR_DATE ( 2023, 12, 2 ) ;
#92 = APPLICATION_CONTEXT ( 'configuration controlled 3d designs of mechanical parts and assemblies' ) ;
#93 = EDGE_CURVE ( 'NONE', #244, #35, #187, .T. ) ;
#94 = AXIS2_PLACEMENT_3D ( 'NONE', #111, #13, #14 ) ;
#95 = LOCAL_TIME ( 13, 33, 21.00000000000000000, #63 ) ;
#96 = PERSON_AND_ORGANIZATION ( #45, #162 ) ;
#97 = VERTEX_POINT ( 'NONE', #166 ) ;
#98 = EDGE_CURVE ( 'NONE', #79, #192, #115, .T. ) ;
#99 = CARTESIAN_POINT ( 'NONE',  ( 2.250000000000000000, 2.755455298081544285E-16, 3.000000000000000000 ) ) ;
#100 = ORIENTED_EDGE ( 'NONE', *, *, #98, .F. ) ;
#101 = ORIENTED_EDGE ( 'NONE', *, *, #105, .F. ) ;
#102 = DIRECTION ( 'NONE',  ( 0.000000000000000000, 0.000000000000000000, 1.000000000000000000 ) ) ;
#103 = CALENDAR_DATE ( 2023, 12, 2 ) ;
#104 = EDGE_LOOP ( 'NONE', ( #101, #194, #121, #58 ) ) ;
#105 = EDGE_CURVE ( 'NONE', #79, #20, #10, .T. ) ;
#106 = PERSON_AND_ORGANIZATION_ROLE ( 'design_supplier' ) ;
#107 = CARTESIAN_POINT ( 'NONE',  ( 0.000000000000000000, 0.000000000000000000, 3.000000000000000000 ) ) ;
#108 = DIRECTION ( 'NONE',  ( 0.000000000000000000, 0.000000000000000000, 1.000000000000000000 ) ) ;
#109 = PERSON_AND_ORGANIZATION ( #45, #162 ) ;
#110 = ADVANCED_FACE ( 'NONE', ( #70 ), #171, .F. ) ;
#111 = CARTESIAN_POINT ( 'NONE',  ( 0.000000000000000000, 0.000000000000000000, 0.000000000000000000 ) ) ;
#112 = CYLINDRICAL_SURFACE ( 'NONE', #57, 4.000000000000000000 ) ;
#113 = EDGE_CURVE ( 'NONE', #20, #97, #72, .T. ) ;
#114 = DIRECTION ( 'NONE',  ( 1.000000000000000000, 0.000000000000000000, 0.000000000000000000 ) ) ;
#115 = CIRCLE ( 'NONE', #147, 4.000000000000000000 ) ;
#116 = APPROVAL_STATUS ( 'not_yet_approved' ) ;
#117 = ORIENTED_EDGE ( 'NONE', *, *, #148, .F. ) ;
#118 = EDGE_LOOP ( 'NONE', ( #201, #183 ) ) ;
#119 = ADVANCED_FACE ( 'NONE', ( #38 ), #112, .T. ) ;
#120 = DIRECTION ( 'NONE',  ( -0.000000000000000000, -0.000000000000000000, -1.000000000000000000 ) ) ;
#121 = ORIENTED_EDGE ( 'NONE', *, *, #61, .T. ) ;
#122 = FACE_OUTER_BOUND ( 'NONE', #220, .T. ) ;
#123 = CALENDAR_DATE ( 2023, 12, 2 ) ;
#124 = EDGE_CURVE ( 'NONE', #204, #158, #175, .T. ) ;
#125 = DATE_TIME_ROLE ( 'classification_date' ) ;
#126 = CARTESIAN_POINT ( 'NONE',  ( 0.000000000000000000, 0.000000000000000000, 3.000000000000000000 ) ) ;
#127 = AXIS2_PLACEMENT_3D ( 'NONE', #178, #139, #47 ) ;
#128 = DIRECTION ( 'NONE',  ( 0.000000000000000000, 0.000000000000000000, 1.000000000000000000 ) ) ;
#129 = CC_DESIGN_PERSON_AND_ORGANIZATION_ASSIGNMENT ( #109, #191, ( #39 ) ) ;
#130 = PRODUCT ( 'd7f8', 'd7f8', '', ( #232 ) ) ;
#131 = CARTESIAN_POINT ( 'NONE',  ( 4.000000000000000000, 4.898587196589412829E-16, 3.000000000000000000 ) ) ;
#132 = DATE_TIME_ROLE ( 'creation_date' ) ;
#133 = CC_DESIGN_PERSON_AND_ORGANIZATION_ASSIGNMENT ( #241, #48, ( #193 ) ) ;
#134 =( GEOMETRIC_REPRESENTATION_CONTEXT ( 3 ) GLOBAL_UNCERTAINTY_ASSIGNED_CONTEXT ( ( #198 ) ) GLOBAL_UNIT_ASSIGNED_CONTEXT ( ( #5, #87, #64 ) ) REPRESENTATION_CONTEXT ( 'NONE', 'WORKASPACE' ) );
#135 = CARTESIAN_POINT ( 'NONE',  ( 0.000000000000000000, 0.000000000000000000, 250.0000000000000000 ) ) ;
#136 = APPROVAL ( #186, 'NEURÈENÝ' ) ;
#137 = PERSON_AND_ORGANIZATION_ROLE ( 'creator' ) ;
#138 = LOCAL_TIME ( 13, 33, 21.00000000000000000, #21 ) ;
#139 = DIRECTION ( 'NONE',  ( 0.000000000000000000, 0.000000000000000000, 1.000000000000000000 ) ) ;
#140 = DIRECTION ( 'NONE',  ( -1.000000000000000000, 0.000000000000000000, 0.000000000000000000 ) ) ;
#141 = EDGE_LOOP ( 'NONE', ( #40, #55, #174, #161 ) ) ;
#142 = PERSON_AND_ORGANIZATION ( #45, #162 ) ;
#143 = CARTESIAN_POINT ( 'NONE',  ( -2.250000000000000000, 0.000000000000000000, 3.000000000000000000 ) ) ;
#144 = CARTESIAN_POINT ( 'NONE',  ( 0.000000000000000000, 0.000000000000000000, 0.000000000000000000 ) ) ;
#145 = DATE_AND_TIME ( #91, #95 ) ;
#146 = DIRECTION ( 'NONE',  ( -0.000000000000000000, -0.000000000000000000, -1.000000000000000000 ) ) ;
#147 = AXIS2_PLACEMENT_3D ( 'NONE', #66, #190, #239 ) ;
#148 = EDGE_CURVE ( 'NONE', #204, #244, #200, .T. ) ;
#149 = VECTOR ( 'NONE', #234, 1000.000000000000000 ) ;
#150 = ORIENTED_EDGE ( 'NONE', *, *, #61, .F. ) ;
#151 = DIRECTION ( 'NONE',  ( -0.000000000000000000, -0.000000000000000000, -1.000000000000000000 ) ) ;
#152 = AXIS2_PLACEMENT_3D ( 'NONE', #144, #108, #60 ) ;
#153 = FACE_OUTER_BOUND ( 'NONE', #1, .T. ) ;
#154 = EDGE_CURVE ( 'NONE', #158, #204, #50, .T. ) ;
#155 = EDGE_LOOP ( 'NONE', ( #117, #233, #42, #168 ) ) ;
#156 = FACE_OUTER_BOUND ( 'NONE', #34, .T. ) ;
#157 = AXIS2_PLACEMENT_3D ( 'NONE', #173, #227, #210 ) ;
#158 = VERTEX_POINT ( 'NONE', #219 ) ;
#159 = CALENDAR_DATE ( 2023, 12, 2 ) ;
#160 = DIRECTION ( 'NONE',  ( 1.000000000000000000, 0.000000000000000000, -0.000000000000000000 ) ) ;
#161 = ORIENTED_EDGE ( 'NONE', *, *, #36, .F. ) ;
#162 = ORGANIZATION ( 'NEURÈENÝ', 'NEURÈENÝ', '' ) ;
#163 = CARTESIAN_POINT ( 'NONE',  ( 4.000000000000000000, 4.898587196589412829E-16, 3.000000000000000000 ) ) ;
#164 = APPROVAL_ROLE ( '' ) ;
#165 = CC_DESIGN_PERSON_AND_ORGANIZATION_ASSIGNMENT ( #96, #137, ( #218 ) ) ;
#166 = CARTESIAN_POINT ( 'NONE',  ( -4.000000000000000000, 0.000000000000000000, 0.000000000000000000 ) ) ;
#167 = CARTESIAN_POINT ( 'NONE',  ( -2.250000000000000000, 0.000000000000000000, 250.0000000000000000 ) ) ;
#168 = ORIENTED_EDGE ( 'NONE', *, *, #44, .T. ) ;
#169 = APPROVAL_DATE_TIME ( #145, #136 ) ;
#170 = ADVANCED_FACE ( 'NONE', ( #153 ), #228, .T. ) ;
#171 = PLANE ( 'NONE',  #94 ) ;
#172 = ADVANCED_FACE ( 'NONE', ( #41 ), #235, .T. ) ;
#173 = CARTESIAN_POINT ( 'NONE',  ( 0.000000000000000000, 0.000000000000000000, 0.000000000000000000 ) ) ;
#174 = ORIENTED_EDGE ( 'NONE', *, *, #93, .T. ) ;
#175 = CIRCLE ( 'NONE', #127, 2.250000000000000000 ) ;
#176 = AXIS2_PLACEMENT_3D ( 'NONE', #221, #75, #46 ) ;
#177 = APPLICATION_PROTOCOL_DEFINITION ( 'international standard', 'config_control_design', 1994, #213 ) ;
#178 = CARTESIAN_POINT ( 'NONE',  ( 0.000000000000000000, 0.000000000000000000, 250.0000000000000000 ) ) ;
#179 = APPROVAL ( #67, 'NEURÈENÝ' ) ;
#180 = CARTESIAN_POINT ( 'NONE',  ( 0.000000000000000000, 0.000000000000000000, 3.000000000000000000 ) ) ;
#181 = CC_DESIGN_APPROVAL ( #136, ( #193 ) ) ;
#182 = DIRECTION ( 'NONE',  ( -1.000000000000000000, 0.000000000000000000, 0.000000000000000000 ) ) ;
#183 = ORIENTED_EDGE ( 'NONE', *, *, #93, .F. ) ;
#184 = PERSON_AND_ORGANIZATION ( #45, #162 ) ;
#185 = PERSON_AND_ORGANIZATION ( #45, #162 ) ;
#186 = APPROVAL_STATUS ( 'not_yet_approved' ) ;
#187 = CIRCLE ( 'NONE', #12, 2.250000000000000000 ) ;
#188 = CYLINDRICAL_SURFACE ( 'NONE', #4, 2.250000000000000000 ) ;
#189 = AXIS2_PLACEMENT_3D ( 'NONE', #135, #120, #215 ) ;
#190 = DIRECTION ( 'NONE',  ( 0.000000000000000000, 0.000000000000000000, 1.000000000000000000 ) ) ;
#191 = PERSON_AND_ORGANIZATION_ROLE ( 'creator' ) ;
#192 = VERTEX_POINT ( 'NONE', #24 ) ;
#193 = SECURITY_CLASSIFICATION ( '', '', #29 ) ;
#194 = ORIENTED_EDGE ( 'NONE', *, *, #245, .F. ) ;
#195 = APPROVAL ( #116, 'NEURÈENÝ' ) ;
#196 = LOCAL_TIME ( 13, 33, 21.00000000000000000, #222 ) ;
#197 = ORIENTED_EDGE ( 'NONE', *, *, #113, .T. ) ;
#198 = UNCERTAINTY_MEASURE_WITH_UNIT (LENGTH_MEASURE( 1.000000000000000082E-05 ), #5, 'distance_accuracy_value', 'NONE');
#199 = FACE_BOUND ( 'NONE', #118, .T. ) ;
#200 = LINE ( 'NONE', #251, #149 ) ;
#201 = ORIENTED_EDGE ( 'NONE', *, *, #44, .F. ) ;
#202 = AXIS2_PLACEMENT_3D ( 'NONE', #27, #2, #160 ) ;
#203 = PLANE ( 'NONE',  #202 ) ;
#204 = VERTEX_POINT ( 'NONE', #76 ) ;
#205 = ORIENTED_EDGE ( 'NONE', *, *, #124, .T. ) ;
#206 = ADVANCED_FACE ( 'NONE', ( #156 ), #217, .T. ) ;
#207 = DIRECTION ( 'NONE',  ( -0.000000000000000000, -0.000000000000000000, -1.000000000000000000 ) ) ;
#208 = PERSON_AND_ORGANIZATION ( #45, #162 ) ;
#209 = APPROVAL_ROLE ( '' ) ;
#210 = DIRECTION ( 'NONE',  ( 1.000000000000000000, 0.000000000000000000, 0.000000000000000000 ) ) ;
#211 = CIRCLE ( 'NONE', #85, 4.000000000000000000 ) ;
#212 = ADVANCED_FACE ( 'NONE', ( #199, #122 ), #203, .T. ) ;
#213 = APPLICATION_CONTEXT ( 'configuration controlled 3d designs of mechanical parts and assemblies' ) ;
#214 = VECTOR ( 'NONE', #53, 1000.000000000000000 ) ;
#215 = DIRECTION ( 'NONE',  ( -1.000000000000000000, 0.000000000000000000, 0.000000000000000000 ) ) ;
#216 = LOCAL_TIME ( 13, 33, 21.00000000000000000, #252 ) ;
#217 = CYLINDRICAL_SURFACE ( 'NONE', #16, 4.000000000000000000 ) ;
#218 = PRODUCT_DEFINITION ( 'NEZNÁMÝ', '', #39, #246 ) ;
#219 = CARTESIAN_POINT ( 'NONE',  ( -2.250000000000000000, 0.000000000000000000, 250.0000000000000000 ) ) ;
#220 = EDGE_LOOP ( 'NONE', ( #43, #237 ) ) ;
#221 = CARTESIAN_POINT ( 'NONE',  ( 0.000000000000000000, 0.000000000000000000, 250.0000000000000000 ) ) ;
#222 = COORDINATED_UNIVERSAL_TIME_OFFSET ( 1, 0, .AHEAD. ) ;
#223 = CC_DESIGN_DATE_AND_TIME_ASSIGNMENT ( #226, #132, ( #218 ) ) ;
#224 = VECTOR ( 'NONE', #62, 1000.000000000000000 ) ;
#225 = DIRECTION ( 'NONE',  ( 1.000000000000000000, 0.000000000000000000, 0.000000000000000000 ) ) ;
#226 = DATE_AND_TIME ( #123, #138 ) ;
#227 = DIRECTION ( 'NONE',  ( 0.000000000000000000, 0.000000000000000000, 1.000000000000000000 ) ) ;
#228 = PLANE ( 'NONE',  #31 ) ;
#229 = ORIENTED_EDGE ( 'NONE', *, *, #154, .T. ) ;
#230 = APPROVAL_DATE_TIME ( #18, #195 ) ;
#231 = LOCAL_TIME ( 13, 33, 21.00000000000000000, #69 ) ;
#232 = MECHANICAL_CONTEXT ( 'NONE', #213, 'mechanical' ) ;
#233 = ORIENTED_EDGE ( 'NONE', *, *, #154, .F. ) ;
#234 = DIRECTION ( 'NONE',  ( -0.000000000000000000, -0.000000000000000000, -1.000000000000000000 ) ) ;
#235 = CYLINDRICAL_SURFACE ( 'NONE', #189, 2.250000000000000000 ) ;
#236 = AXIS2_PLACEMENT_3D ( 'NONE', #126, #128, #225 ) ;
#237 = ORIENTED_EDGE ( 'NONE', *, *, #98, .T. ) ;
#238 = LINE ( 'NONE', #167, #224 ) ;
#239 = DIRECTION ( 'NONE',  ( 1.000000000000000000, 0.000000000000000000, 0.000000000000000000 ) ) ;
#240 = CC_DESIGN_APPROVAL ( #179, ( #39 ) ) ;
#241 = PERSON_AND_ORGANIZATION ( #45, #162 ) ;
#242 = VECTOR ( 'NONE', #146, 1000.000000000000000 ) ;
#243 = DATE_AND_TIME ( #9, #196 ) ;
#244 = VERTEX_POINT ( 'NONE', #99 ) ;
#245 = EDGE_CURVE ( 'NONE', #192, #79, #211, .T. ) ;
#246 = DESIGN_CONTEXT ( 'detailed design', #92, 'design' ) ;
#247 = CARTESIAN_POINT ( 'NONE',  ( 0.000000000000000000, 0.000000000000000000, 250.0000000000000000 ) ) ;
#248 = ADVANCED_BREP_SHAPE_REPRESENTATION ( 'd7f8', ( #83, #37 ), #134 ) ;
#249 = PERSON_AND_ORGANIZATION ( #45, #162 ) ;
#250 = PRODUCT_RELATED_PRODUCT_CATEGORY ( 'detail', '', ( #130 ) ) ;
#251 = CARTESIAN_POINT ( 'NONE',  ( 2.250000000000000000, 2.755455298081544285E-16, 250.0000000000000000 ) ) ;
#252 = COORDINATED_UNIVERSAL_TIME_OFFSET ( 1, 0, .AHEAD. ) ;
#253 = CIRCLE ( 'NONE', #152, 4.000000000000000000 ) ;
#254 = DIRECTION ( 'NONE',  ( 0.000000000000000000, 0.000000000000000000, 1.000000000000000000 ) ) ;
#255 = CC_DESIGN_SECURITY_CLASSIFICATION ( #193, ( #39 ) ) ;
ENDSEC;
END-ISO-10303-21;
