ISO-10303-21;
HEADER;
FILE_DESCRIPTION (( 'STEP AP203' ),
    '1' );
FILE_NAME ('0797.STEP',
    '2022-07-07T10:08:15',
    ( '' ),
    ( '' ),
    'SwSTEP 2.0',
    'SolidWorks 2019',
    '' );
FILE_SCHEMA (( 'CONFIG_CONTROL_DESIGN' ));
ENDSEC;

DATA;
#1 = VECTOR ( 'NONE', #15, 1000.000000000000000 ) ;
#2 = AXIS2_PLACEMENT_3D ( 'NONE', #289, #208, #4 ) ;
#3 = PERSON_AND_ORGANIZATION ( #235, #68 ) ;
#4 = DIRECTION ( 'NONE',  ( 1.000000000000000000, 0.000000000000000000, 0.000000000000000000 ) ) ;
#5 = CIRCLE ( 'NONE', #212, 6.000000000000000888 ) ;
#6 = ADVANCED_FACE ( 'NONE', ( #37 ), #109, .T. ) ;
#7 = ORIENTED_EDGE ( 'NONE', *, *, #223, .F. ) ;
#8 = SECURITY_CLASSIFICATION_LEVEL ( 'unclassified' ) ;
#9 = LOCAL_TIME ( 12, 8, 15.00000000000000000, #156 ) ;
#10 = EDGE_LOOP ( 'NONE', ( #7, #272 ) ) ;
#11 = EDGE_LOOP ( 'NONE', ( #241, #201, #144, #96 ) ) ;
#12 = CALENDAR_DATE ( 2022, 7, 7 ) ;
#13 = VERTEX_POINT ( 'NONE', #195 ) ;
#14 = PERSON_AND_ORGANIZATION ( #235, #68 ) ;
#15 = DIRECTION ( 'NONE',  ( -0.000000000000000000, -0.000000000000000000, -1.000000000000000000 ) ) ;
#16 = SECURITY_CLASSIFICATION ( '', '', #8 ) ;
#17 = PERSON_AND_ORGANIZATION ( #235, #68 ) ;
#18 = CARTESIAN_POINT ( 'NONE',  ( 3.250000000000000444, 3.980102097228898231E-16, 1004.999999999999886 ) ) ;
#19 = DIRECTION ( 'NONE',  ( -0.000000000000000000, -0.000000000000000000, -1.000000000000000000 ) ) ;
#20 = CARTESIAN_POINT ( 'NONE',  ( 0.000000000000000000, 0.000000000000000000, 5.000000000000000000 ) ) ;
#21 = AXIS2_PLACEMENT_3D ( 'NONE', #107, #41, #39 ) ;
#22 = CC_DESIGN_PERSON_AND_ORGANIZATION_ASSIGNMENT ( #17, #108, ( #284 ) ) ;
#23 = DIRECTION ( 'NONE',  ( 0.000000000000000000, 0.000000000000000000, 1.000000000000000000 ) ) ;
#24 = AXIS2_PLACEMENT_3D ( 'NONE', #198, #174, #172 ) ;
#25 = CARTESIAN_POINT ( 'NONE',  ( 0.000000000000000000, 0.000000000000000000, 5.000000000000000000 ) ) ;
#26 = CC_DESIGN_SECURITY_CLASSIFICATION ( #16, ( #284 ) ) ;
#27 = CARTESIAN_POINT ( 'NONE',  ( 0.000000000000000000, 0.000000000000000000, 1004.999999999999886 ) ) ;
#28 = EDGE_CURVE ( 'NONE', #151, #218, #250, .T. ) ;
#29 = CARTESIAN_POINT ( 'NONE',  ( 0.000000000000000000, 0.000000000000000000, 5.000000000000000000 ) ) ;
#30 =( GEOMETRIC_REPRESENTATION_CONTEXT ( 3 ) GLOBAL_UNCERTAINTY_ASSIGNED_CONTEXT ( ( #220 ) ) GLOBAL_UNIT_ASSIGNED_CONTEXT ( ( #60, #259, #177 ) ) REPRESENTATION_CONTEXT ( 'NONE', 'WORKASPACE' ) );
#31 = ORIENTED_EDGE ( 'NONE', *, *, #70, .T. ) ;
#32 = EDGE_LOOP ( 'NONE', ( #215, #295, #71, #164 ) ) ;
#33 = ORIENTED_EDGE ( 'NONE', *, *, #303, .T. ) ;
#34 = ORIENTED_EDGE ( 'NONE', *, *, #262, .F. ) ;
#35 = APPROVAL_STATUS ( 'not_yet_approved' ) ;
#36 = ORIENTED_EDGE ( 'NONE', *, *, #70, .F. ) ;
#37 = FACE_OUTER_BOUND ( 'NONE', #11, .T. ) ;
#38 = PERSON_AND_ORGANIZATION ( #235, #68 ) ;
#39 = DIRECTION ( 'NONE',  ( 1.000000000000000000, 0.000000000000000000, 0.000000000000000000 ) ) ;
#40 = PLANE ( 'NONE',  #130 ) ;
#41 = DIRECTION ( 'NONE',  ( 0.000000000000000000, 0.000000000000000000, 1.000000000000000000 ) ) ;
#42 = FACE_OUTER_BOUND ( 'NONE', #10, .T. ) ;
#43 = CARTESIAN_POINT ( 'NONE',  ( 0.000000000000000000, 0.000000000000000000, 5.199999999999982414 ) ) ;
#44 = DIRECTION ( 'NONE',  ( 1.000000000000000000, 0.000000000000000000, 0.000000000000000000 ) ) ;
#45 = EDGE_CURVE ( 'NONE', #185, #191, #88, .T. ) ;
#46 = ADVANCED_FACE ( 'NONE', ( #175 ), #157, .F. ) ;
#47 = LINE ( 'NONE', #87, #258 ) ;
#48 = ADVANCED_FACE ( 'NONE', ( #42 ), #279, .F. ) ;
#49 = ORIENTED_EDGE ( 'NONE', *, *, #242, .F. ) ;
#50 = EDGE_CURVE ( 'NONE', #143, #13, #62, .T. ) ;
#51 = CALENDAR_DATE ( 2022, 7, 7 ) ;
#52 = CC_DESIGN_APPROVAL ( #91, ( #284 ) ) ;
#53 = DATE_AND_TIME ( #268, #106 ) ;
#54 = DIRECTION ( 'NONE',  ( -0.000000000000000000, -0.000000000000000000, -1.000000000000000000 ) ) ;
#55 = COORDINATED_UNIVERSAL_TIME_OFFSET ( 1, 0, .AHEAD. ) ;
#56 = DIRECTION ( 'NONE',  ( 0.000000000000000000, 0.000000000000000000, 1.000000000000000000 ) ) ;
#57 = VECTOR ( 'NONE', #152, 1000.000000000000000 ) ;
#58 = FACE_BOUND ( 'NONE', #77, .T. ) ;
#59 = DIRECTION ( 'NONE',  ( 0.000000000000000000, 0.000000000000000000, 1.000000000000000000 ) ) ;
#60 =( LENGTH_UNIT ( ) NAMED_UNIT ( * ) SI_UNIT ( .MILLI., .METRE. ) );
#61 = DIRECTION ( 'NONE',  ( 0.000000000000000000, 0.000000000000000000, 1.000000000000000000 ) ) ;
#62 = CIRCLE ( 'NONE', #118, 3.450000000000000178 ) ;
#63 = DIRECTION ( 'NONE',  ( 1.000000000000000000, 0.000000000000000000, 0.000000000000000000 ) ) ;
#64 = APPROVAL_PERSON_ORGANIZATION ( #3, #181, #206 ) ;
#65 = DIRECTION ( 'NONE',  ( -0.000000000000000000, -0.000000000000000000, -1.000000000000000000 ) ) ;
#66 = CARTESIAN_POINT ( 'NONE',  ( -3.450000000000000178, 4.225031457058368824E-16, 5.199999999999982414 ) ) ;
#67 = CARTESIAN_POINT ( 'NONE',  ( 0.000000000000000000, 0.000000000000000000, 1004.999999999999886 ) ) ;
#68 = ORGANIZATION ( 'NEURÈENÝ', 'NEURÈENÝ', '' ) ;
#69 = PERSON_AND_ORGANIZATION_ROLE ( 'creator' ) ;
#70 = EDGE_CURVE ( 'NONE', #193, #191, #171, .T. ) ;
#71 = ORIENTED_EDGE ( 'NONE', *, *, #50, .F. ) ;
#72 = VECTOR ( 'NONE', #173, 1000.000000000000000 ) ;
#73 = ORIENTED_EDGE ( 'NONE', *, *, #126, .T. ) ;
#74 = ADVANCED_FACE ( 'NONE', ( #232 ), #128, .T. ) ;
#75 = ORIENTED_EDGE ( 'NONE', *, *, #223, .T. ) ;
#76 = AXIS2_PLACEMENT_3D ( 'NONE', #110, #54, #304 ) ;
#77 = EDGE_LOOP ( 'NONE', ( #121, #246 ) ) ;
#78 = AXIS2_PLACEMENT_3D ( 'NONE', #67, #307, #236 ) ;
#79 = ORIENTED_EDGE ( 'NONE', *, *, #199, .F. ) ;
#80 = APPROVAL_ROLE ( '' ) ;
#81 = ORIENTED_EDGE ( 'NONE', *, *, #192, .F. ) ;
#82 = CARTESIAN_POINT ( 'NONE',  ( -3.250000000000000444, 0.000000000000000000, 1004.999999999999886 ) ) ;
#83 = DIRECTION ( 'NONE',  ( 1.000000000000000000, 0.000000000000000000, 0.000000000000000000 ) ) ;
#84 = CIRCLE ( 'NONE', #150, 0.2000000000000000944 ) ;
#85 = CARTESIAN_POINT ( 'NONE',  ( 0.000000000000000000, 0.000000000000000000, 5.000000000000000000 ) ) ;
#86 = DIRECTION ( 'NONE',  ( 1.000000000000000000, 0.000000000000000000, 0.000000000000000000 ) ) ;
#87 = CARTESIAN_POINT ( 'NONE',  ( 6.000000000000000888, 7.347880794884120722E-16, 5.000000000000000000 ) ) ;
#88 = CIRCLE ( 'NONE', #115, 6.000000000000000888 ) ;
#89 = DIRECTION ( 'NONE',  ( 1.000000000000000000, 0.000000000000000000, -0.000000000000000000 ) ) ;
#90 = CC_DESIGN_APPROVAL ( #247, ( #16 ) ) ;
#91 = APPROVAL ( #35, 'NEURÈENÝ' ) ;
#92 = DIRECTION ( 'NONE',  ( 0.000000000000000000, 0.000000000000000000, -1.000000000000000000 ) ) ;
#93 = DIRECTION ( 'NONE',  ( 1.000000000000000000, 0.000000000000000000, 0.000000000000000000 ) ) ;
#94 = PERSON_AND_ORGANIZATION ( #235, #68 ) ;
#95 = CC_DESIGN_APPROVAL ( #181, ( #267 ) ) ;
#96 = ORIENTED_EDGE ( 'NONE', *, *, #126, .F. ) ;
#97 = DESIGN_CONTEXT ( 'detailed design', #255, 'design' ) ;
#98 = COORDINATED_UNIVERSAL_TIME_OFFSET ( 1, 0, .AHEAD. ) ;
#99 = CYLINDRICAL_SURFACE ( 'NONE', #154, 6.000000000000000888 ) ;
#100 = MANIFOLD_SOLID_BREP ( 'Zaoblit1', #168 ) ;
#101 = ORIENTED_EDGE ( 'NONE', *, *, #301, .T. ) ;
#102 = AXIS2_PLACEMENT_3D ( 'NONE', #277, #302, #276 ) ;
#103 = CARTESIAN_POINT ( 'NONE',  ( 0.000000000000000000, 0.000000000000000000, 0.000000000000000000 ) ) ;
#104 = CC_DESIGN_DATE_AND_TIME_ASSIGNMENT ( #170, #190, ( #16 ) ) ;
#105 = DATE_AND_TIME ( #51, #9 ) ;
#106 = LOCAL_TIME ( 12, 8, 15.00000000000000000, #296 ) ;
#107 = CARTESIAN_POINT ( 'NONE',  ( 0.000000000000000000, 0.000000000000000000, 5.000000000000000000 ) ) ;
#108 = PERSON_AND_ORGANIZATION_ROLE ( 'creator' ) ;
#109 = CYLINDRICAL_SURFACE ( 'NONE', #76, 3.250000000000000444 ) ;
#110 = CARTESIAN_POINT ( 'NONE',  ( 0.000000000000000000, 0.000000000000000000, 1004.999999999999886 ) ) ;
#111 = PLANE ( 'NONE',  #252 ) ;
#112 = AXIS2_PLACEMENT_3D ( 'NONE', #27, #158, #63 ) ;
#113 = DIRECTION ( 'NONE',  ( 0.000000000000000000, 0.000000000000000000, 1.000000000000000000 ) ) ;
#114 = ADVANCED_FACE ( 'NONE', ( #224 ), #256, .T. ) ;
#115 = AXIS2_PLACEMENT_3D ( 'NONE', #257, #153, #83 ) ;
#116 = AXIS2_PLACEMENT_3D ( 'NONE', #29, #113, #205 ) ;
#117 = APPLICATION_PROTOCOL_DEFINITION ( 'international standard', 'config_control_design', 1994, #202 ) ;
#118 = AXIS2_PLACEMENT_3D ( 'NONE', #20, #135, #147 ) ;
#119 = APPROVAL_ROLE ( '' ) ;
#120 = VERTEX_POINT ( 'NONE', #82 ) ;
#121 = ORIENTED_EDGE ( 'NONE', *, *, #50, .T. ) ;
#122 = ORIENTED_EDGE ( 'NONE', *, *, #45, .T. ) ;
#123 = APPROVAL_PERSON_ORGANIZATION ( #38, #91, #119 ) ;
#124 = VERTEX_POINT ( 'NONE', #280 ) ;
#125 = PERSON_AND_ORGANIZATION_ROLE ( 'design_supplier' ) ;
#126 = EDGE_CURVE ( 'NONE', #120, #151, #297, .T. ) ;
#127 = ORIENTED_EDGE ( 'NONE', *, *, #162, .T. ) ;
#128 = CYLINDRICAL_SURFACE ( 'NONE', #102, 6.000000000000000888 ) ;
#129 = DATE_AND_TIME ( #216, #146 ) ;
#130 = AXIS2_PLACEMENT_3D ( 'NONE', #132, #228, #89 ) ;
#131 = CARTESIAN_POINT ( 'NONE',  ( 0.000000000000000000, 0.000000000000000000, 1004.999999999999886 ) ) ;
#132 = CARTESIAN_POINT ( 'NONE',  ( 0.000000000000000000, 0.000000000000000000, 5.000000000000000000 ) ) ;
#133 = DIRECTION ( 'NONE',  ( -0.000000000000000000, -0.000000000000000000, -1.000000000000000000 ) ) ;
#134 = CARTESIAN_POINT ( 'NONE',  ( 3.450000000000000178, 0.000000000000000000, 5.199999999999982414 ) ) ;
#135 = DIRECTION ( 'NONE',  ( -0.000000000000000000, -0.000000000000000000, -1.000000000000000000 ) ) ;
#136 = EDGE_CURVE ( 'NONE', #193, #219, #163, .T. ) ;
#137 = CARTESIAN_POINT ( 'NONE',  ( 3.250000000000000444, 3.980102097228898231E-16, 5.199999999999982414 ) ) ;
#138 = TOROIDAL_SURFACE ( 'NONE', #2, 3.450000000000000178, 0.2000000000000000111 ) ;
#139 = ADVANCED_FACE ( 'NONE', ( #300 ), #111, .T. ) ;
#140 = DIRECTION ( 'NONE',  ( -1.000000000000000000, 0.000000000000000000, 0.000000000000000000 ) ) ;
#141 = EDGE_CURVE ( 'NONE', #124, #218, #227, .T. ) ;
#142 = ADVANCED_FACE ( 'NONE', ( #58, #253 ), #40, .T. ) ;
#143 = VERTEX_POINT ( 'NONE', #282 ) ;
#144 = ORIENTED_EDGE ( 'NONE', *, *, #192, .T. ) ;
#145 = ORIENTED_EDGE ( 'NONE', *, *, #278, .F. ) ;
#146 = LOCAL_TIME ( 12, 8, 15.00000000000000000, #98 ) ;
#147 = DIRECTION ( 'NONE',  ( 1.000000000000000000, 0.000000000000000000, 0.000000000000000000 ) ) ;
#148 = PERSON_AND_ORGANIZATION_ROLE ( 'classification_officer' ) ;
#149 = DIRECTION ( 'NONE',  ( 1.000000000000000000, 0.000000000000000000, -0.000000000000000000 ) ) ;
#150 = AXIS2_PLACEMENT_3D ( 'NONE', #66, #184, #263 ) ;
#151 = VERTEX_POINT ( 'NONE', #269 ) ;
#152 = DIRECTION ( 'NONE',  ( -0.000000000000000000, -0.000000000000000000, -1.000000000000000000 ) ) ;
#153 = DIRECTION ( 'NONE',  ( 0.000000000000000000, 0.000000000000000000, 1.000000000000000000 ) ) ;
#154 = AXIS2_PLACEMENT_3D ( 'NONE', #85, #133, #140 ) ;
#155 = PERSON_AND_ORGANIZATION_ROLE ( 'design_owner' ) ;
#156 = COORDINATED_UNIVERSAL_TIME_OFFSET ( 1, 0, .AHEAD. ) ;
#157 = TOROIDAL_SURFACE ( 'NONE', #24, 3.450000000000000178, 0.2000000000000000111 ) ;
#158 = DIRECTION ( 'NONE',  ( 0.000000000000000000, 0.000000000000000000, 1.000000000000000000 ) ) ;
#159 = CIRCLE ( 'NONE', #112, 3.250000000000000444 ) ;
#160 = CIRCLE ( 'NONE', #288, 3.450000000000000178 ) ;
#161 = DATE_AND_TIME ( #239, #226 ) ;
#162 = EDGE_CURVE ( 'NONE', #124, #120, #159, .T. ) ;
#163 = CIRCLE ( 'NONE', #21, 6.000000000000000888 ) ;
#164 = ORIENTED_EDGE ( 'NONE', *, *, #303, .F. ) ;
#165 = FACE_OUTER_BOUND ( 'NONE', #270, .T. ) ;
#166 = EDGE_LOOP ( 'NONE', ( #292, #145, #73, #290 ) ) ;
#167 = COORDINATED_UNIVERSAL_TIME_OFFSET ( 1, 0, .AHEAD. ) ;
#168 = CLOSED_SHELL ( 'NONE', ( #46, #6, #271, #74, #142, #48, #114, #139, #243 ) ) ;
#169 = ORIENTED_EDGE ( 'NONE', *, *, #199, .T. ) ;
#170 = DATE_AND_TIME ( #12, #230 ) ;
#171 = LINE ( 'NONE', #248, #57 ) ;
#172 = DIRECTION ( 'NONE',  ( 1.000000000000000000, 0.000000000000000000, 0.000000000000000000 ) ) ;
#173 = DIRECTION ( 'NONE',  ( -0.000000000000000000, -0.000000000000000000, -1.000000000000000000 ) ) ;
#174 = DIRECTION ( 'NONE',  ( 0.000000000000000000, 0.000000000000000000, 1.000000000000000000 ) ) ;
#175 = FACE_OUTER_BOUND ( 'NONE', #32, .T. ) ;
#176 = CC_DESIGN_DATE_AND_TIME_ASSIGNMENT ( #53, #299, ( #267 ) ) ;
#177 =( NAMED_UNIT ( * ) SI_UNIT ( $, .STERADIAN. ) SOLID_ANGLE_UNIT ( ) );
#178 = DIRECTION ( 'NONE',  ( 0.000000000000000000, 0.000000000000000000, 1.000000000000000000 ) ) ;
#179 = APPROVAL_PERSON_ORGANIZATION ( #293, #247, #80 ) ;
#180 = MECHANICAL_CONTEXT ( 'NONE', #202, 'mechanical' ) ;
#181 = APPROVAL ( #234, 'NEURÈENÝ' ) ;
#182 = DIRECTION ( 'NONE',  ( -0.000000000000000000, -0.000000000000000000, -1.000000000000000000 ) ) ;
#183 = APPLICATION_PROTOCOL_DEFINITION ( 'international standard', 'config_control_design', 1994, #255 ) ;
#184 = DIRECTION ( 'NONE',  ( 1.224646799147353207E-16, 1.000000000000000000, -0.000000000000000000 ) ) ;
#185 = VERTEX_POINT ( 'NONE', #233 ) ;
#186 = CC_DESIGN_PERSON_AND_ORGANIZATION_ASSIGNMENT ( #287, #125, ( #284 ) ) ;
#187 = PRODUCT_DEFINITION_SHAPE ( 'NONE', 'NONE',  #267 ) ;
#188 = ORIENTED_EDGE ( 'NONE', *, *, #301, .F. ) ;
#189 = EDGE_LOOP ( 'NONE', ( #49, #81, #33, #34 ) ) ;
#190 = DATE_TIME_ROLE ( 'classification_date' ) ;
#191 = VERTEX_POINT ( 'NONE', #207 ) ;
#192 = EDGE_CURVE ( 'NONE', #218, #151, #237, .T. ) ;
#193 = VERTEX_POINT ( 'NONE', #286 ) ;
#194 = AXIS2_PLACEMENT_3D ( 'NONE', #229, #61, #86 ) ;
#195 = CARTESIAN_POINT ( 'NONE',  ( -3.450000000000000178, 4.225031457058368824E-16, 4.999999999999991118 ) ) ;
#196 = APPROVAL_DATE_TIME ( #105, #181 ) ;
#197 = CIRCLE ( 'NONE', #78, 3.250000000000000444 ) ;
#198 = CARTESIAN_POINT ( 'NONE',  ( 0.000000000000000000, 0.000000000000000000, 5.199999999999982414 ) ) ;
#199 = EDGE_CURVE ( 'NONE', #219, #193, #203, .T. ) ;
#200 = DIRECTION ( 'NONE',  ( -1.000000000000000000, 0.000000000000000000, 0.000000000000000000 ) ) ;
#201 = ORIENTED_EDGE ( 'NONE', *, *, #141, .T. ) ;
#202 = APPLICATION_CONTEXT ( 'configuration controlled 3d designs of mechanical parts and assemblies' ) ;
#203 = CIRCLE ( 'NONE', #116, 6.000000000000000888 ) ;
#204 = CARTESIAN_POINT ( 'NONE',  ( 0.000000000000000000, 0.000000000000000000, 1004.999999999999886 ) ) ;
#205 = DIRECTION ( 'NONE',  ( 1.000000000000000000, 0.000000000000000000, 0.000000000000000000 ) ) ;
#206 = APPROVAL_ROLE ( '' ) ;
#207 = CARTESIAN_POINT ( 'NONE',  ( -6.000000000000000888, 0.000000000000000000, 0.000000000000000000 ) ) ;
#208 = DIRECTION ( 'NONE',  ( 0.000000000000000000, 0.000000000000000000, 1.000000000000000000 ) ) ;
#209 = CARTESIAN_POINT ( 'NONE',  ( 0.000000000000000000, 0.000000000000000000, 0.000000000000000000 ) ) ;
#210 = AXIS2_PLACEMENT_3D ( 'NONE', #103, #59, #251 ) ;
#211 = CC_DESIGN_PERSON_AND_ORGANIZATION_ASSIGNMENT ( #14, #148, ( #16 ) ) ;
#212 = AXIS2_PLACEMENT_3D ( 'NONE', #209, #178, #285 ) ;
#213 = ADVANCED_BREP_SHAPE_REPRESENTATION ( '0797', ( #100, #245 ), #30 ) ;
#214 = EDGE_LOOP ( 'NONE', ( #306, #169 ) ) ;
#215 = ORIENTED_EDGE ( 'NONE', *, *, #28, .F. ) ;
#216 = CALENDAR_DATE ( 2022, 7, 7 ) ;
#217 = CC_DESIGN_PERSON_AND_ORGANIZATION_ASSIGNMENT ( #249, #69, ( #267 ) ) ;
#218 = VERTEX_POINT ( 'NONE', #137 ) ;
#219 = VERTEX_POINT ( 'NONE', #238 ) ;
#220 = UNCERTAINTY_MEASURE_WITH_UNIT (LENGTH_MEASURE( 1.000000000000000082E-05 ), #60, 'distance_accuracy_value', 'NONE');
#221 = APPROVAL_DATE_TIME ( #161, #247 ) ;
#222 = EDGE_LOOP ( 'NONE', ( #244, #127 ) ) ;
#223 = EDGE_CURVE ( 'NONE', #191, #185, #5, .T. ) ;
#224 = FACE_OUTER_BOUND ( 'NONE', #166, .T. ) ;
#225 = APPROVAL_DATE_TIME ( #129, #91 ) ;
#226 = LOCAL_TIME ( 12, 8, 15.00000000000000000, #167 ) ;
#227 = LINE ( 'NONE', #18, #72 ) ;
#228 = DIRECTION ( 'NONE',  ( 0.000000000000000000, 0.000000000000000000, 1.000000000000000000 ) ) ;
#229 = CARTESIAN_POINT ( 'NONE',  ( 0.000000000000000000, 0.000000000000000000, 5.199999999999982414 ) ) ;
#230 = LOCAL_TIME ( 12, 8, 15.00000000000000000, #55 ) ;
#231 = DIRECTION ( 'NONE',  ( 0.000000000000000000, -1.000000000000000000, 0.000000000000000000 ) ) ;
#232 = FACE_OUTER_BOUND ( 'NONE', #240, .T. ) ;
#233 = CARTESIAN_POINT ( 'NONE',  ( 6.000000000000000888, 7.347880794884120722E-16, 0.000000000000000000 ) ) ;
#234 = APPROVAL_STATUS ( 'not_yet_approved' ) ;
#235 = PERSON ( 'NEURÈENÝ', 'NEURÈENÝ', 'NEURÈENÝ', ('NEURÈENÝ'), ('NEURÈENÝ'), ('NEURÈENÝ') ) ;
#236 = DIRECTION ( 'NONE',  ( 1.000000000000000000, 0.000000000000000000, 0.000000000000000000 ) ) ;
#237 = CIRCLE ( 'NONE', #298, 3.250000000000000444 ) ;
#238 = CARTESIAN_POINT ( 'NONE',  ( 6.000000000000000888, 7.347880794884120722E-16, 5.000000000000000000 ) ) ;
#239 = CALENDAR_DATE ( 2022, 7, 7 ) ;
#240 = EDGE_LOOP ( 'NONE', ( #188, #294, #31, #75 ) ) ;
#241 = ORIENTED_EDGE ( 'NONE', *, *, #162, .F. ) ;
#242 = EDGE_CURVE ( 'NONE', #151, #13, #84, .T. ) ;
#243 = ADVANCED_FACE ( 'NONE', ( #261 ), #138, .F. ) ;
#244 = ORIENTED_EDGE ( 'NONE', *, *, #278, .T. ) ;
#245 = AXIS2_PLACEMENT_3D ( 'NONE', #260, #264, #44 ) ;
#246 = ORIENTED_EDGE ( 'NONE', *, *, #262, .T. ) ;
#247 = APPROVAL ( #273, 'NEURÈENÝ' ) ;
#248 = CARTESIAN_POINT ( 'NONE',  ( -6.000000000000000888, 0.000000000000000000, 5.000000000000000000 ) ) ;
#249 = PERSON_AND_ORGANIZATION ( #235, #68 ) ;
#250 = CIRCLE ( 'NONE', #194, 3.250000000000000444 ) ;
#251 = DIRECTION ( 'NONE',  ( 1.000000000000000000, 0.000000000000000000, -0.000000000000000000 ) ) ;
#252 = AXIS2_PLACEMENT_3D ( 'NONE', #131, #56, #149 ) ;
#253 = FACE_OUTER_BOUND ( 'NONE', #214, .T. ) ;
#254 = CC_DESIGN_PERSON_AND_ORGANIZATION_ASSIGNMENT ( #94, #155, ( #291 ) ) ;
#255 = APPLICATION_CONTEXT ( 'configuration controlled 3d designs of mechanical parts and assemblies' ) ;
#256 = CYLINDRICAL_SURFACE ( 'NONE', #281, 3.250000000000000444 ) ;
#257 = CARTESIAN_POINT ( 'NONE',  ( 0.000000000000000000, 0.000000000000000000, 0.000000000000000000 ) ) ;
#258 = VECTOR ( 'NONE', #65, 1000.000000000000000 ) ;
#259 =( NAMED_UNIT ( * ) PLANE_ANGLE_UNIT ( ) SI_UNIT ( $, .RADIAN. ) );
#260 = CARTESIAN_POINT ( 'NONE',  ( 0.000000000000000000, 0.000000000000000000, 0.000000000000000000 ) ) ;
#261 = FACE_OUTER_BOUND ( 'NONE', #189, .T. ) ;
#262 = EDGE_CURVE ( 'NONE', #13, #143, #160, .T. ) ;
#263 = DIRECTION ( 'NONE',  ( -1.000000000000000000, 1.224646799147350742E-16, 0.000000000000000000 ) ) ;
#264 = DIRECTION ( 'NONE',  ( 0.000000000000000000, 0.000000000000000000, 1.000000000000000000 ) ) ;
#265 = DIRECTION ( 'NONE',  ( 1.000000000000000000, 0.000000000000000000, 0.000000000000000000 ) ) ;
#266 = AXIS2_PLACEMENT_3D ( 'NONE', #134, #231, #92 ) ;
#267 = PRODUCT_DEFINITION ( 'NEZNÁMÝ', '', #284, #97 ) ;
#268 = CALENDAR_DATE ( 2022, 7, 7 ) ;
#269 = CARTESIAN_POINT ( 'NONE',  ( -3.250000000000000444, 0.000000000000000000, 5.199999999999982414 ) ) ;
#270 = EDGE_LOOP ( 'NONE', ( #79, #101, #122, #36 ) ) ;
#271 = ADVANCED_FACE ( 'NONE', ( #165 ), #99, .T. ) ;
#272 = ORIENTED_EDGE ( 'NONE', *, *, #45, .F. ) ;
#273 = APPROVAL_STATUS ( 'not_yet_approved' ) ;
#274 = SHAPE_DEFINITION_REPRESENTATION ( #187, #213 ) ;
#275 = CARTESIAN_POINT ( 'NONE',  ( -3.250000000000000444, 0.000000000000000000, 1004.999999999999886 ) ) ;
#276 = DIRECTION ( 'NONE',  ( -1.000000000000000000, 0.000000000000000000, 0.000000000000000000 ) ) ;
#277 = CARTESIAN_POINT ( 'NONE',  ( 0.000000000000000000, 0.000000000000000000, 5.000000000000000000 ) ) ;
#278 = EDGE_CURVE ( 'NONE', #120, #124, #197, .T. ) ;
#279 = PLANE ( 'NONE',  #210 ) ;
#280 = CARTESIAN_POINT ( 'NONE',  ( 3.250000000000000444, 3.980102097228898231E-16, 1004.999999999999886 ) ) ;
#281 = AXIS2_PLACEMENT_3D ( 'NONE', #204, #19, #200 ) ;
#282 = CARTESIAN_POINT ( 'NONE',  ( 3.450000000000000178, 0.000000000000000000, 4.999999999999991118 ) ) ;
#283 = PRODUCT_RELATED_PRODUCT_CATEGORY ( 'detail', '', ( #291 ) ) ;
#284 = PRODUCT_DEFINITION_FORMATION_WITH_SPECIFIED_SOURCE ( 'LIBOVOLNÝ', '', #291, .NOT_KNOWN. ) ;
#285 = DIRECTION ( 'NONE',  ( 1.000000000000000000, 0.000000000000000000, 0.000000000000000000 ) ) ;
#286 = CARTESIAN_POINT ( 'NONE',  ( -6.000000000000000888, 0.000000000000000000, 5.000000000000000000 ) ) ;
#287 = PERSON_AND_ORGANIZATION ( #235, #68 ) ;
#288 = AXIS2_PLACEMENT_3D ( 'NONE', #25, #182, #265 ) ;
#289 = CARTESIAN_POINT ( 'NONE',  ( 0.000000000000000000, 0.000000000000000000, 5.199999999999982414 ) ) ;
#290 = ORIENTED_EDGE ( 'NONE', *, *, #28, .T. ) ;
#291 = PRODUCT ( '0797', '0797', '', ( #180 ) ) ;
#292 = ORIENTED_EDGE ( 'NONE', *, *, #141, .F. ) ;
#293 = PERSON_AND_ORGANIZATION ( #235, #68 ) ;
#294 = ORIENTED_EDGE ( 'NONE', *, *, #136, .F. ) ;
#295 = ORIENTED_EDGE ( 'NONE', *, *, #242, .T. ) ;
#296 = COORDINATED_UNIVERSAL_TIME_OFFSET ( 1, 0, .AHEAD. ) ;
#297 = LINE ( 'NONE', #275, #1 ) ;
#298 = AXIS2_PLACEMENT_3D ( 'NONE', #43, #23, #93 ) ;
#299 = DATE_TIME_ROLE ( 'creation_date' ) ;
#300 = FACE_OUTER_BOUND ( 'NONE', #222, .T. ) ;
#301 = EDGE_CURVE ( 'NONE', #219, #185, #47, .T. ) ;
#302 = DIRECTION ( 'NONE',  ( -0.000000000000000000, -0.000000000000000000, -1.000000000000000000 ) ) ;
#303 = EDGE_CURVE ( 'NONE', #218, #143, #305, .T. ) ;
#304 = DIRECTION ( 'NONE',  ( -1.000000000000000000, 0.000000000000000000, 0.000000000000000000 ) ) ;
#305 = CIRCLE ( 'NONE', #266, 0.1999999999999996503 ) ;
#306 = ORIENTED_EDGE ( 'NONE', *, *, #136, .T. ) ;
#307 = DIRECTION ( 'NONE',  ( 0.000000000000000000, 0.000000000000000000, 1.000000000000000000 ) ) ;
ENDSEC;
END-ISO-10303-21;
