ISO-10303-21;
HEADER;
FILE_DESCRIPTION (( 'STEP AP203' ),
    '1' );
FILE_NAME ('6407.STEP',
    '2022-07-07T09:59:11',
    ( '' ),
    ( '' ),
    'SwSTEP 2.0',
    'SolidWorks 2019',
    '' );
FILE_SCHEMA (( 'CONFIG_CONTROL_DESIGN' ));
ENDSEC;

DATA;
#1 = ORIENTED_EDGE ( 'NONE', *, *, #209, .F. ) ;
#2 = DIRECTION ( 'NONE',  ( 0.000000000000000000, 0.000000000000000000, 1.000000000000000000 ) ) ;
#3 = ORIENTED_EDGE ( 'NONE', *, *, #72, .T. ) ;
#4 = CARTESIAN_POINT ( 'NONE',  ( 0.000000000000000000, 0.000000000000000000, 130.0000000000000000 ) ) ;
#5 = EDGE_CURVE ( 'NONE', #102, #268, #164, .T. ) ;
#6 = ORIENTED_EDGE ( 'NONE', *, *, #196, .T. ) ;
#7 = CARTESIAN_POINT ( 'NONE',  ( 0.000000000000000000, 0.000000000000000000, 130.0000000000000000 ) ) ;
#8 = DIRECTION ( 'NONE',  ( 0.000000000000000000, 0.000000000000000000, 1.000000000000000000 ) ) ;
#9 = LOCAL_TIME ( 11, 59, 11.00000000000000000, #299 ) ;
#10 = DIRECTION ( 'NONE',  ( 0.000000000000000000, 0.000000000000000000, 1.000000000000000000 ) ) ;
#11 = CARTESIAN_POINT ( 'NONE',  ( -7.000000000000000000, 0.000000000000000000, 0.000000000000000000 ) ) ;
#12 = CARTESIAN_POINT ( 'NONE',  ( 0.000000000000000000, 0.000000000000000000, 5.199999999999996625 ) ) ;
#13 = CLOSED_SHELL ( 'NONE', ( #240, #168, #133, #159, #278, #269, #36, #242, #181 ) ) ;
#14 = AXIS2_PLACEMENT_3D ( 'NONE', #200, #293, #176 ) ;
#15 = DATE_TIME_ROLE ( 'creation_date' ) ;
#16 = DIRECTION ( 'NONE',  ( 1.000000000000000000, 0.000000000000000000, 0.000000000000000000 ) ) ;
#17 = DIRECTION ( 'NONE',  ( 0.000000000000000000, 0.000000000000000000, 1.000000000000000000 ) ) ;
#18 = ORIENTED_EDGE ( 'NONE', *, *, #5, .F. ) ;
#19 = CC_DESIGN_PERSON_AND_ORGANIZATION_ASSIGNMENT ( #213, #68, ( #264 ) ) ;
#20 = AXIS2_PLACEMENT_3D ( 'NONE', #135, #224, #276 ) ;
#21 = CARTESIAN_POINT ( 'NONE',  ( 0.000000000000000000, 0.000000000000000000, 130.0000000000000000 ) ) ;
#22 = ORIENTED_EDGE ( 'NONE', *, *, #5, .T. ) ;
#23 = DIRECTION ( 'NONE',  ( 1.000000000000000000, 0.000000000000000000, 0.000000000000000000 ) ) ;
#24 = VERTEX_POINT ( 'NONE', #120 ) ;
#25 = EDGE_CURVE ( 'NONE', #165, #97, #26, .T. ) ;
#26 = CIRCLE ( 'NONE', #189, 4.250000000000000000 ) ;
#27 = CARTESIAN_POINT ( 'NONE',  ( -4.250000000000000000, 0.000000000000000000, 130.0000000000000000 ) ) ;
#28 = CYLINDRICAL_SURFACE ( 'NONE', #85, 7.000000000000000000 ) ;
#29 = FACE_OUTER_BOUND ( 'NONE', #150, .T. ) ;
#30 = APPROVAL ( #231, 'NEURÈENÝ' ) ;
#31 = DIRECTION ( 'NONE',  ( 1.000000000000000000, 0.000000000000000000, -0.000000000000000000 ) ) ;
#32 = CIRCLE ( 'NONE', #270, 4.250000000000000000 ) ;
#33 = CC_DESIGN_APPROVAL ( #30, ( #264 ) ) ;
#34 = DIRECTION ( 'NONE',  ( -1.000000000000000000, 0.000000000000000000, 0.000000000000000000 ) ) ;
#35 = DIRECTION ( 'NONE',  ( 1.000000000000000000, 0.000000000000000000, 0.000000000000000000 ) ) ;
#36 = ADVANCED_FACE ( 'NONE', ( #99 ), #193, .T. ) ;
#37 = APPROVAL_STATUS ( 'not_yet_approved' ) ;
#38 = PERSON_AND_ORGANIZATION ( #152, #241 ) ;
#39 = CC_DESIGN_DATE_AND_TIME_ASSIGNMENT ( #281, #64, ( #297 ) ) ;
#40 = CARTESIAN_POINT ( 'NONE',  ( 0.000000000000000000, 0.000000000000000000, 0.000000000000000000 ) ) ;
#41 = DIRECTION ( 'NONE',  ( 0.000000000000000000, 0.000000000000000000, 1.000000000000000000 ) ) ;
#42 = ORIENTED_EDGE ( 'NONE', *, *, #108, .F. ) ;
#43 = PERSON_AND_ORGANIZATION ( #152, #241 ) ;
#44 = AXIS2_PLACEMENT_3D ( 'NONE', #7, #80, #104 ) ;
#45 = CYLINDRICAL_SURFACE ( 'NONE', #282, 7.000000000000000000 ) ;
#46 = CC_DESIGN_DATE_AND_TIME_ASSIGNMENT ( #114, #15, ( #146 ) ) ;
#47 = ORIENTED_EDGE ( 'NONE', *, *, #153, .F. ) ;
#48 = ORIENTED_EDGE ( 'NONE', *, *, #153, .T. ) ;
#49 = CC_DESIGN_APPROVAL ( #157, ( #297 ) ) ;
#50 = VERTEX_POINT ( 'NONE', #76 ) ;
#51 = EDGE_CURVE ( 'NONE', #77, #167, #32, .T. ) ;
#52 = ORIENTED_EDGE ( 'NONE', *, *, #94, .F. ) ;
#53 = DIRECTION ( 'NONE',  ( -1.000000000000000000, 1.224646799147353454E-16, 0.000000000000000000 ) ) ;
#54 = VECTOR ( 'NONE', #151, 1000.000000000000000 ) ;
#55 = CYLINDRICAL_SURFACE ( 'NONE', #20, 4.250000000000000000 ) ;
#56 = AXIS2_PLACEMENT_3D ( 'NONE', #239, #260, #249 ) ;
#57 = EDGE_CURVE ( 'NONE', #165, #167, #149, .T. ) ;
#58 = DIRECTION ( 'NONE',  ( 1.000000000000000000, 0.000000000000000000, 0.000000000000000000 ) ) ;
#59 = CARTESIAN_POINT ( 'NONE',  ( -4.450000000000000178, 5.449678256205721784E-16, 4.999999999999998224 ) ) ;
#60 = DIRECTION ( 'NONE',  ( -0.000000000000000000, -0.000000000000000000, -1.000000000000000000 ) ) ;
#61 = CARTESIAN_POINT ( 'NONE',  ( 0.000000000000000000, 0.000000000000000000, 5.000000000000000000 ) ) ;
#62 = EDGE_CURVE ( 'NONE', #97, #165, #246, .T. ) ;
#63 = APPROVAL_STATUS ( 'not_yet_approved' ) ;
#64 = DATE_TIME_ROLE ( 'classification_date' ) ;
#65 = SHAPE_DEFINITION_REPRESENTATION ( #145, #109 ) ;
#66 = CALENDAR_DATE ( 2022, 7, 7 ) ;
#67 = CARTESIAN_POINT ( 'NONE',  ( 0.000000000000000000, 0.000000000000000000, 130.0000000000000000 ) ) ;
#68 = PERSON_AND_ORGANIZATION_ROLE ( 'design_supplier' ) ;
#69 = DIRECTION ( 'NONE',  ( -0.000000000000000000, -0.000000000000000000, -1.000000000000000000 ) ) ;
#70 = ORIENTED_EDGE ( 'NONE', *, *, #94, .T. ) ;
#71 = CIRCLE ( 'NONE', #214, 7.000000000000000000 ) ;
#72 = EDGE_CURVE ( 'NONE', #24, #217, #188, .T. ) ;
#73 = ORIENTED_EDGE ( 'NONE', *, *, #141, .T. ) ;
#74 = VECTOR ( 'NONE', #140, 1000.000000000000000 ) ;
#75 = EDGE_CURVE ( 'NONE', #24, #268, #306, .T. ) ;
#76 = CARTESIAN_POINT ( 'NONE',  ( 4.450000000000000178, 0.000000000000000000, 4.999999999999998224 ) ) ;
#77 = VERTEX_POINT ( 'NONE', #123 ) ;
#78 = DIRECTION ( 'NONE',  ( -0.000000000000000000, -0.000000000000000000, -1.000000000000000000 ) ) ;
#79 = CARTESIAN_POINT ( 'NONE',  ( 0.000000000000000000, 0.000000000000000000, 5.000000000000000000 ) ) ;
#80 = DIRECTION ( 'NONE',  ( 0.000000000000000000, 0.000000000000000000, 1.000000000000000000 ) ) ;
#81 = CC_DESIGN_APPROVAL ( #230, ( #146 ) ) ;
#82 = FACE_OUTER_BOUND ( 'NONE', #142, .T. ) ;
#83 = DESIGN_CONTEXT ( 'detailed design', #307, 'design' ) ;
#84 = DIRECTION ( 'NONE',  ( 0.000000000000000000, 0.000000000000000000, -1.000000000000000000 ) ) ;
#85 = AXIS2_PLACEMENT_3D ( 'NONE', #61, #60, #34 ) ;
#86 = LOCAL_TIME ( 11, 59, 11.00000000000000000, #137 ) ;
#87 = PERSON_AND_ORGANIZATION ( #152, #241 ) ;
#88 = APPLICATION_PROTOCOL_DEFINITION ( 'international standard', 'config_control_design', 1994, #267 ) ;
#89 = SECURITY_CLASSIFICATION_LEVEL ( 'unclassified' ) ;
#90 = DATE_AND_TIME ( #234, #126 ) ;
#91 = DIRECTION ( 'NONE',  ( 1.000000000000000000, 0.000000000000000000, 0.000000000000000000 ) ) ;
#92 = DIRECTION ( 'NONE',  ( 1.000000000000000000, 0.000000000000000000, 0.000000000000000000 ) ) ;
#93 = CARTESIAN_POINT ( 'NONE',  ( -7.000000000000000000, 0.000000000000000000, 5.000000000000000000 ) ) ;
#94 = EDGE_CURVE ( 'NONE', #97, #77, #199, .T. ) ;
#95 = ORIENTED_EDGE ( 'NONE', *, *, #62, .F. ) ;
#96 =( GEOMETRIC_REPRESENTATION_CONTEXT ( 3 ) GLOBAL_UNCERTAINTY_ASSIGNED_CONTEXT ( ( #130 ) ) GLOBAL_UNIT_ASSIGNED_CONTEXT ( ( #225, #253, #229 ) ) REPRESENTATION_CONTEXT ( 'NONE', 'WORKASPACE' ) );
#97 = VERTEX_POINT ( 'NONE', #219 ) ;
#98 = CC_DESIGN_PERSON_AND_ORGANIZATION_ASSIGNMENT ( #207, #285, ( #146 ) ) ;
#99 = FACE_OUTER_BOUND ( 'NONE', #166, .T. ) ;
#100 = ORIENTED_EDGE ( 'NONE', *, *, #196, .F. ) ;
#101 = CARTESIAN_POINT ( 'NONE',  ( 7.000000000000000000, 8.572527594031473190E-16, 0.000000000000000000 ) ) ;
#102 = VERTEX_POINT ( 'NONE', #101 ) ;
#103 = CC_DESIGN_PERSON_AND_ORGANIZATION_ASSIGNMENT ( #43, #280, ( #233 ) ) ;
#104 = DIRECTION ( 'NONE',  ( 1.000000000000000000, 0.000000000000000000, -0.000000000000000000 ) ) ;
#105 = LINE ( 'NONE', #296, #206 ) ;
#106 = APPROVAL_PERSON_ORGANIZATION ( #112, #30, #208 ) ;
#107 = CARTESIAN_POINT ( 'NONE',  ( 0.000000000000000000, 0.000000000000000000, 5.000000000000000000 ) ) ;
#108 = EDGE_CURVE ( 'NONE', #167, #147, #252, .T. ) ;
#109 = ADVANCED_BREP_SHAPE_REPRESENTATION ( '6407', ( #138, #191 ), #96 ) ;
#110 = DIRECTION ( 'NONE',  ( 0.000000000000000000, -1.000000000000000000, 0.000000000000000000 ) ) ;
#111 = AXIS2_PLACEMENT_3D ( 'NONE', #40, #2, #91 ) ;
#112 = PERSON_AND_ORGANIZATION ( #152, #241 ) ;
#113 = PRODUCT_RELATED_PRODUCT_CATEGORY ( 'detail', '', ( #233 ) ) ;
#114 = DATE_AND_TIME ( #136, #9 ) ;
#115 = CALENDAR_DATE ( 2022, 7, 7 ) ;
#116 = AXIS2_PLACEMENT_3D ( 'NONE', #292, #197, #53 ) ;
#117 = CARTESIAN_POINT ( 'NONE',  ( 0.000000000000000000, 0.000000000000000000, 0.000000000000000000 ) ) ;
#118 = CARTESIAN_POINT ( 'NONE',  ( 0.000000000000000000, 0.000000000000000000, 0.000000000000000000 ) ) ;
#119 = APPROVAL_PERSON_ORGANIZATION ( #38, #230, #279 ) ;
#120 = CARTESIAN_POINT ( 'NONE',  ( -7.000000000000000000, 0.000000000000000000, 5.000000000000000000 ) ) ;
#121 = CC_DESIGN_SECURITY_CLASSIFICATION ( #297, ( #264 ) ) ;
#122 = ORIENTED_EDGE ( 'NONE', *, *, #51, .T. ) ;
#123 = CARTESIAN_POINT ( 'NONE',  ( 4.250000000000000000, 5.204748896376250699E-16, 5.199999999999996625 ) ) ;
#124 = ORIENTED_EDGE ( 'NONE', *, *, #127, .T. ) ;
#125 = DIRECTION ( 'NONE',  ( -1.000000000000000000, 0.000000000000000000, 0.000000000000000000 ) ) ;
#126 = LOCAL_TIME ( 11, 59, 11.00000000000000000, #300 ) ;
#127 = EDGE_CURVE ( 'NONE', #268, #102, #290, .T. ) ;
#128 = CARTESIAN_POINT ( 'NONE',  ( -4.250000000000000000, 0.000000000000000000, 130.0000000000000000 ) ) ;
#129 = PLANE ( 'NONE',  #248 ) ;
#130 = UNCERTAINTY_MEASURE_WITH_UNIT (LENGTH_MEASURE( 1.000000000000000082E-05 ), #225, 'distance_accuracy_value', 'NONE');
#131 = AXIS2_PLACEMENT_3D ( 'NONE', #21, #186, #235 ) ;
#132 = CARTESIAN_POINT ( 'NONE',  ( 7.000000000000000000, 8.572527594031473190E-16, 5.000000000000000000 ) ) ;
#133 = ADVANCED_FACE ( 'NONE', ( #245 ), #45, .T. ) ;
#134 = FACE_BOUND ( 'NONE', #190, .T. ) ;
#135 = CARTESIAN_POINT ( 'NONE',  ( 0.000000000000000000, 0.000000000000000000, 130.0000000000000000 ) ) ;
#136 = CALENDAR_DATE ( 2022, 7, 7 ) ;
#137 = COORDINATED_UNIVERSAL_TIME_OFFSET ( 1, 0, .AHEAD. ) ;
#138 = MANIFOLD_SOLID_BREP ( 'Zaoblit1', #13 ) ;
#139 = EDGE_LOOP ( 'NONE', ( #236, #18 ) ) ;
#140 = DIRECTION ( 'NONE',  ( -0.000000000000000000, -0.000000000000000000, -1.000000000000000000 ) ) ;
#141 = EDGE_CURVE ( 'NONE', #147, #50, #179, .T. ) ;
#142 = EDGE_LOOP ( 'NONE', ( #215, #263 ) ) ;
#143 = ORIENTED_EDGE ( 'NONE', *, *, #141, .F. ) ;
#144 = ORIENTED_EDGE ( 'NONE', *, *, #254, .T. ) ;
#145 = PRODUCT_DEFINITION_SHAPE ( 'NONE', 'NONE',  #146 ) ;
#146 = PRODUCT_DEFINITION ( 'NEZNÁMÝ', '', #264, #83 ) ;
#147 = VERTEX_POINT ( 'NONE', #59 ) ;
#148 = CIRCLE ( 'NONE', #172, 0.1999999999999996503 ) ;
#149 = LINE ( 'NONE', #27, #194 ) ;
#150 = EDGE_LOOP ( 'NONE', ( #3, #273 ) ) ;
#151 = DIRECTION ( 'NONE',  ( -0.000000000000000000, -0.000000000000000000, -1.000000000000000000 ) ) ;
#152 = PERSON ( 'NEURÈENÝ', 'NEURÈENÝ', 'NEURÈENÝ', ('NEURÈENÝ'), ('NEURÈENÝ'), ('NEURÈENÝ') ) ;
#153 = EDGE_CURVE ( 'NONE', #217, #102, #105, .T. ) ;
#154 = DIRECTION ( 'NONE',  ( 1.000000000000000000, 0.000000000000000000, 0.000000000000000000 ) ) ;
#155 = FACE_OUTER_BOUND ( 'NONE', #216, .T. ) ;
#156 = PLANE ( 'NONE',  #44 ) ;
#157 = APPROVAL ( #63, 'NEURÈENÝ' ) ;
#158 = FACE_OUTER_BOUND ( 'NONE', #195, .T. ) ;
#159 = ADVANCED_FACE ( 'NONE', ( #158 ), #28, .T. ) ;
#160 = COORDINATED_UNIVERSAL_TIME_OFFSET ( 1, 0, .AHEAD. ) ;
#161 = APPROVAL_DATE_TIME ( #162, #157 ) ;
#162 = DATE_AND_TIME ( #256, #258 ) ;
#163 = DIRECTION ( 'NONE',  ( 1.000000000000000000, 0.000000000000000000, 0.000000000000000000 ) ) ;
#164 = CIRCLE ( 'NONE', #111, 7.000000000000000000 ) ;
#165 = VERTEX_POINT ( 'NONE', #128 ) ;
#166 = EDGE_LOOP ( 'NONE', ( #52, #266, #304, #6 ) ) ;
#167 = VERTEX_POINT ( 'NONE', #295 ) ;
#168 = ADVANCED_FACE ( 'NONE', ( #155 ), #55, .T. ) ;
#169 = AXIS2_PLACEMENT_3D ( 'NONE', #187, #212, #23 ) ;
#170 = ORIENTED_EDGE ( 'NONE', *, *, #108, .T. ) ;
#171 = DIRECTION ( 'NONE',  ( 0.000000000000000000, 0.000000000000000000, 1.000000000000000000 ) ) ;
#172 = AXIS2_PLACEMENT_3D ( 'NONE', #294, #110, #84 ) ;
#173 = ORIENTED_EDGE ( 'NONE', *, *, #57, .F. ) ;
#174 = CARTESIAN_POINT ( 'NONE',  ( 4.250000000000000000, 5.204748896376250699E-16, 130.0000000000000000 ) ) ;
#175 = FACE_OUTER_BOUND ( 'NONE', #192, .T. ) ;
#176 = DIRECTION ( 'NONE',  ( 1.000000000000000000, 0.000000000000000000, 0.000000000000000000 ) ) ;
#177 = FACE_OUTER_BOUND ( 'NONE', #139, .T. ) ;
#178 = CARTESIAN_POINT ( 'NONE',  ( 0.000000000000000000, 0.000000000000000000, 5.199999999999996625 ) ) ;
#179 = CIRCLE ( 'NONE', #56, 4.450000000000000178 ) ;
#180 = COORDINATED_UNIVERSAL_TIME_OFFSET ( 1, 0, .AHEAD. ) ;
#181 = ADVANCED_FACE ( 'NONE', ( #205 ), #265, .F. ) ;
#182 = PERSON_AND_ORGANIZATION_ROLE ( 'classification_officer' ) ;
#183 = DIRECTION ( 'NONE',  ( 0.000000000000000000, 0.000000000000000000, 1.000000000000000000 ) ) ;
#184 = LOCAL_TIME ( 11, 59, 11.00000000000000000, #180 ) ;
#185 = APPROVAL_DATE_TIME ( #90, #30 ) ;
#186 = DIRECTION ( 'NONE',  ( -0.000000000000000000, -0.000000000000000000, -1.000000000000000000 ) ) ;
#187 = CARTESIAN_POINT ( 'NONE',  ( 0.000000000000000000, 0.000000000000000000, 5.000000000000000000 ) ) ;
#188 = CIRCLE ( 'NONE', #169, 7.000000000000000000 ) ;
#189 = AXIS2_PLACEMENT_3D ( 'NONE', #4, #41, #16 ) ;
#190 = EDGE_LOOP ( 'NONE', ( #144, #73 ) ) ;
#191 = AXIS2_PLACEMENT_3D ( 'NONE', #118, #183, #92 ) ;
#192 = EDGE_LOOP ( 'NONE', ( #100, #170, #211, #291 ) ) ;
#193 = CYLINDRICAL_SURFACE ( 'NONE', #131, 4.250000000000000000 ) ;
#194 = VECTOR ( 'NONE', #78, 1000.000000000000000 ) ;
#195 = EDGE_LOOP ( 'NONE', ( #47, #289, #274, #124 ) ) ;
#196 = EDGE_CURVE ( 'NONE', #167, #77, #202, .T. ) ;
#197 = DIRECTION ( 'NONE',  ( 1.224646799147353207E-16, 1.000000000000000000, -0.000000000000000000 ) ) ;
#198 = TOROIDAL_SURFACE ( 'NONE', #271, 4.450000000000000178, 0.2000000000000000111 ) ;
#199 = LINE ( 'NONE', #174, #74 ) ;
#200 = CARTESIAN_POINT ( 'NONE',  ( 0.000000000000000000, 0.000000000000000000, 5.000000000000000000 ) ) ;
#201 = DIRECTION ( 'NONE',  ( 1.000000000000000000, 0.000000000000000000, -0.000000000000000000 ) ) ;
#202 = CIRCLE ( 'NONE', #221, 4.250000000000000000 ) ;
#203 = DIRECTION ( 'NONE',  ( -0.000000000000000000, -0.000000000000000000, -1.000000000000000000 ) ) ;
#204 = CARTESIAN_POINT ( 'NONE',  ( 0.000000000000000000, 0.000000000000000000, 5.199999999999996625 ) ) ;
#205 = FACE_OUTER_BOUND ( 'NONE', #288, .T. ) ;
#206 = VECTOR ( 'NONE', #203, 1000.000000000000000 ) ;
#207 = PERSON_AND_ORGANIZATION ( #152, #241 ) ;
#208 = APPROVAL_ROLE ( '' ) ;
#209 = EDGE_CURVE ( 'NONE', #217, #24, #71, .T. ) ;
#210 = DATE_AND_TIME ( #115, #86 ) ;
#211 = ORIENTED_EDGE ( 'NONE', *, *, #254, .F. ) ;
#212 = DIRECTION ( 'NONE',  ( 0.000000000000000000, 0.000000000000000000, 1.000000000000000000 ) ) ;
#213 = PERSON_AND_ORGANIZATION ( #152, #241 ) ;
#214 = AXIS2_PLACEMENT_3D ( 'NONE', #107, #222, #58 ) ;
#215 = ORIENTED_EDGE ( 'NONE', *, *, #25, .T. ) ;
#216 = EDGE_LOOP ( 'NONE', ( #95, #70, #122, #173 ) ) ;
#217 = VERTEX_POINT ( 'NONE', #132 ) ;
#218 = EDGE_CURVE ( 'NONE', #77, #50, #148, .T. ) ;
#219 = CARTESIAN_POINT ( 'NONE',  ( 4.250000000000000000, 5.204748896376250699E-16, 130.0000000000000000 ) ) ;
#220 = ORIENTED_EDGE ( 'NONE', *, *, #218, .T. ) ;
#221 = AXIS2_PLACEMENT_3D ( 'NONE', #204, #255, #226 ) ;
#222 = DIRECTION ( 'NONE',  ( 0.000000000000000000, 0.000000000000000000, 1.000000000000000000 ) ) ;
#223 = CARTESIAN_POINT ( 'NONE',  ( 0.000000000000000000, 0.000000000000000000, 5.000000000000000000 ) ) ;
#224 = DIRECTION ( 'NONE',  ( -0.000000000000000000, -0.000000000000000000, -1.000000000000000000 ) ) ;
#225 =( LENGTH_UNIT ( ) NAMED_UNIT ( * ) SI_UNIT ( .MILLI., .METRE. ) );
#226 = DIRECTION ( 'NONE',  ( 1.000000000000000000, 0.000000000000000000, 0.000000000000000000 ) ) ;
#227 = AXIS2_PLACEMENT_3D ( 'NONE', #117, #17, #286 ) ;
#228 = CIRCLE ( 'NONE', #14, 4.450000000000000178 ) ;
#229 =( NAMED_UNIT ( * ) SI_UNIT ( $, .STERADIAN. ) SOLID_ANGLE_UNIT ( ) );
#230 = APPROVAL ( #37, 'NEURÈENÝ' ) ;
#231 = APPROVAL_STATUS ( 'not_yet_approved' ) ;
#232 = ORIENTED_EDGE ( 'NONE', *, *, #51, .F. ) ;
#233 = PRODUCT ( '6407', '6407', '', ( #259 ) ) ;
#234 = CALENDAR_DATE ( 2022, 7, 7 ) ;
#235 = DIRECTION ( 'NONE',  ( -1.000000000000000000, 0.000000000000000000, 0.000000000000000000 ) ) ;
#236 = ORIENTED_EDGE ( 'NONE', *, *, #127, .F. ) ;
#237 = AXIS2_PLACEMENT_3D ( 'NONE', #277, #251, #31 ) ;
#238 = PERSON_AND_ORGANIZATION ( #152, #241 ) ;
#239 = CARTESIAN_POINT ( 'NONE',  ( 0.000000000000000000, 0.000000000000000000, 5.000000000000000000 ) ) ;
#240 = ADVANCED_FACE ( 'NONE', ( #175 ), #198, .F. ) ;
#241 = ORGANIZATION ( 'NEURÈENÝ', 'NEURÈENÝ', '' ) ;
#242 = ADVANCED_FACE ( 'NONE', ( #82 ), #156, .T. ) ;
#243 = DIRECTION ( 'NONE',  ( 0.000000000000000000, 0.000000000000000000, 1.000000000000000000 ) ) ;
#244 = ORIENTED_EDGE ( 'NONE', *, *, #75, .F. ) ;
#245 = FACE_OUTER_BOUND ( 'NONE', #261, .T. ) ;
#246 = CIRCLE ( 'NONE', #301, 4.250000000000000000 ) ;
#247 = CC_DESIGN_PERSON_AND_ORGANIZATION_ASSIGNMENT ( #262, #182, ( #297 ) ) ;
#248 = AXIS2_PLACEMENT_3D ( 'NONE', #223, #8, #201 ) ;
#249 = DIRECTION ( 'NONE',  ( 1.000000000000000000, 0.000000000000000000, 0.000000000000000000 ) ) ;
#250 = PLANE ( 'NONE',  #237 ) ;
#251 = DIRECTION ( 'NONE',  ( 0.000000000000000000, 0.000000000000000000, 1.000000000000000000 ) ) ;
#252 = CIRCLE ( 'NONE', #116, 0.1999999999999996503 ) ;
#253 =( NAMED_UNIT ( * ) PLANE_ANGLE_UNIT ( ) SI_UNIT ( $, .RADIAN. ) );
#254 = EDGE_CURVE ( 'NONE', #50, #147, #228, .T. ) ;
#255 = DIRECTION ( 'NONE',  ( 0.000000000000000000, 0.000000000000000000, 1.000000000000000000 ) ) ;
#256 = CALENDAR_DATE ( 2022, 7, 7 ) ;
#257 = APPROVAL_ROLE ( '' ) ;
#258 = LOCAL_TIME ( 11, 59, 11.00000000000000000, #160 ) ;
#259 = MECHANICAL_CONTEXT ( 'NONE', #267, 'mechanical' ) ;
#260 = DIRECTION ( 'NONE',  ( -0.000000000000000000, -0.000000000000000000, -1.000000000000000000 ) ) ;
#261 = EDGE_LOOP ( 'NONE', ( #1, #48, #22, #244 ) ) ;
#262 = PERSON_AND_ORGANIZATION ( #152, #241 ) ;
#263 = ORIENTED_EDGE ( 'NONE', *, *, #62, .T. ) ;
#264 = PRODUCT_DEFINITION_FORMATION_WITH_SPECIFIED_SOURCE ( 'LIBOVOLNÝ', '', #233, .NOT_KNOWN. ) ;
#265 = TOROIDAL_SURFACE ( 'NONE', #303, 4.450000000000000178, 0.2000000000000000111 ) ;
#266 = ORIENTED_EDGE ( 'NONE', *, *, #25, .F. ) ;
#267 = APPLICATION_CONTEXT ( 'configuration controlled 3d designs of mechanical parts and assemblies' ) ;
#268 = VERTEX_POINT ( 'NONE', #11 ) ;
#269 = ADVANCED_FACE ( 'NONE', ( #177 ), #250, .F. ) ;
#270 = AXIS2_PLACEMENT_3D ( 'NONE', #284, #171, #272 ) ;
#271 = AXIS2_PLACEMENT_3D ( 'NONE', #178, #275, #154 ) ;
#272 = DIRECTION ( 'NONE',  ( 1.000000000000000000, 0.000000000000000000, 0.000000000000000000 ) ) ;
#273 = ORIENTED_EDGE ( 'NONE', *, *, #209, .T. ) ;
#274 = ORIENTED_EDGE ( 'NONE', *, *, #75, .T. ) ;
#275 = DIRECTION ( 'NONE',  ( 0.000000000000000000, 0.000000000000000000, 1.000000000000000000 ) ) ;
#276 = DIRECTION ( 'NONE',  ( -1.000000000000000000, 0.000000000000000000, 0.000000000000000000 ) ) ;
#277 = CARTESIAN_POINT ( 'NONE',  ( 0.000000000000000000, 0.000000000000000000, 0.000000000000000000 ) ) ;
#278 = ADVANCED_FACE ( 'NONE', ( #134, #29 ), #129, .T. ) ;
#279 = APPROVAL_ROLE ( '' ) ;
#280 = PERSON_AND_ORGANIZATION_ROLE ( 'design_owner' ) ;
#281 = DATE_AND_TIME ( #66, #184 ) ;
#282 = AXIS2_PLACEMENT_3D ( 'NONE', #79, #69, #125 ) ;
#283 = PERSON_AND_ORGANIZATION_ROLE ( 'creator' ) ;
#284 = CARTESIAN_POINT ( 'NONE',  ( 0.000000000000000000, 0.000000000000000000, 5.199999999999996625 ) ) ;
#285 = PERSON_AND_ORGANIZATION_ROLE ( 'creator' ) ;
#286 = DIRECTION ( 'NONE',  ( 1.000000000000000000, 0.000000000000000000, 0.000000000000000000 ) ) ;
#287 = APPROVAL_PERSON_ORGANIZATION ( #87, #157, #257 ) ;
#288 = EDGE_LOOP ( 'NONE', ( #42, #232, #220, #143 ) ) ;
#289 = ORIENTED_EDGE ( 'NONE', *, *, #72, .F. ) ;
#290 = CIRCLE ( 'NONE', #227, 7.000000000000000000 ) ;
#291 = ORIENTED_EDGE ( 'NONE', *, *, #218, .F. ) ;
#292 = CARTESIAN_POINT ( 'NONE',  ( -4.450000000000000178, 5.449678256205721784E-16, 5.199999999999996625 ) ) ;
#293 = DIRECTION ( 'NONE',  ( -0.000000000000000000, -0.000000000000000000, -1.000000000000000000 ) ) ;
#294 = CARTESIAN_POINT ( 'NONE',  ( 4.450000000000000178, 0.000000000000000000, 5.199999999999996625 ) ) ;
#295 = CARTESIAN_POINT ( 'NONE',  ( -4.250000000000000000, 0.000000000000000000, 5.199999999999996625 ) ) ;
#296 = CARTESIAN_POINT ( 'NONE',  ( 7.000000000000000000, 8.572527594031473190E-16, 5.000000000000000000 ) ) ;
#297 = SECURITY_CLASSIFICATION ( '', '', #89 ) ;
#298 = CC_DESIGN_PERSON_AND_ORGANIZATION_ASSIGNMENT ( #238, #283, ( #264 ) ) ;
#299 = COORDINATED_UNIVERSAL_TIME_OFFSET ( 1, 0, .AHEAD. ) ;
#300 = COORDINATED_UNIVERSAL_TIME_OFFSET ( 1, 0, .AHEAD. ) ;
#301 = AXIS2_PLACEMENT_3D ( 'NONE', #67, #243, #163 ) ;
#302 = APPROVAL_DATE_TIME ( #210, #230 ) ;
#303 = AXIS2_PLACEMENT_3D ( 'NONE', #12, #10, #35 ) ;
#304 = ORIENTED_EDGE ( 'NONE', *, *, #57, .T. ) ;
#305 = APPLICATION_PROTOCOL_DEFINITION ( 'international standard', 'config_control_design', 1994, #307 ) ;
#306 = LINE ( 'NONE', #93, #54 ) ;
#307 = APPLICATION_CONTEXT ( 'configuration controlled 3d designs of mechanical parts and assemblies' ) ;
ENDSEC;
END-ISO-10303-21;
