ISO-10303-21;
HEADER;
FILE_DESCRIPTION (( 'STEP AP203' ),
    '1' );
FILE_NAME ('0039.STEP',
    '2022-07-07T10:24:19',
    ( '' ),
    ( '' ),
    'SwSTEP 2.0',
    'SolidWorks 2019',
    '' );
FILE_SCHEMA (( 'CONFIG_CONTROL_DESIGN' ));
ENDSEC;

DATA;
#1 = CARTESIAN_POINT ( 'NONE',  ( 0.000000000000000000, 0.000000000000000000, 203.0000000000000000 ) ) ;
#2 = DIRECTION ( 'NONE',  ( 1.000000000000000000, 0.000000000000000000, -0.000000000000000000 ) ) ;
#3 = CC_DESIGN_APPROVAL ( #133, ( #179 ) ) ;
#4 = EDGE_CURVE ( 'NONE', #302, #104, #134, .T. ) ;
#5 =( NAMED_UNIT ( * ) PLANE_ANGLE_UNIT ( ) SI_UNIT ( $, .RADIAN. ) );
#6 = CALENDAR_DATE ( 2022, 7, 7 ) ;
#7 = VERTEX_POINT ( 'NONE', #180 ) ;
#8 = COORDINATED_UNIVERSAL_TIME_OFFSET ( 1, 0, .AHEAD. ) ;
#9 = ORIENTED_EDGE ( 'NONE', *, *, #260, .T. ) ;
#10 = MECHANICAL_CONTEXT ( 'NONE', #43, 'mechanical' ) ;
#11 = ORIENTED_EDGE ( 'NONE', *, *, #252, .T. ) ;
#12 = CALENDAR_DATE ( 2022, 7, 7 ) ;
#13 = ORIENTED_EDGE ( 'NONE', *, *, #252, .F. ) ;
#14 = VECTOR ( 'NONE', #234, 1000.000000000000000 ) ;
#15 = FACE_OUTER_BOUND ( 'NONE', #21, .T. ) ;
#16 = CARTESIAN_POINT ( 'NONE',  ( 0.000000000000000000, 0.000000000000000000, 3.000000000000000000 ) ) ;
#17 = CC_DESIGN_DATE_AND_TIME_ASSIGNMENT ( #265, #37, ( #179 ) ) ;
#18 = CARTESIAN_POINT ( 'NONE',  ( 0.000000000000000000, 0.000000000000000000, 203.0000000000000000 ) ) ;
#19 = ADVANCED_FACE ( 'NONE', ( #66, #15 ), #157, .T. ) ;
#20 = APPROVAL_PERSON_ORGANIZATION ( #170, #133, #271 ) ;
#21 = EDGE_LOOP ( 'NONE', ( #115, #171 ) ) ;
#22 = CARTESIAN_POINT ( 'NONE',  ( 0.000000000000000000, 0.000000000000000000, 0.000000000000000000 ) ) ;
#23 = VECTOR ( 'NONE', #273, 1000.000000000000000 ) ;
#24 = DIRECTION ( 'NONE',  ( 0.000000000000000000, 0.000000000000000000, 1.000000000000000000 ) ) ;
#25 = DIRECTION ( 'NONE',  ( -0.000000000000000000, -0.000000000000000000, -1.000000000000000000 ) ) ;
#26 = CARTESIAN_POINT ( 'NONE',  ( 0.000000000000000000, 0.000000000000000000, 203.0000000000000000 ) ) ;
#27 = CC_DESIGN_PERSON_AND_ORGANIZATION_ASSIGNMENT ( #143, #122, ( #179 ) ) ;
#28 = FACE_OUTER_BOUND ( 'NONE', #102, .T. ) ;
#29 = AXIS2_PLACEMENT_3D ( 'NONE', #26, #261, #53 ) ;
#30 = ORIENTED_EDGE ( 'NONE', *, *, #56, .T. ) ;
#31 = UNCERTAINTY_MEASURE_WITH_UNIT (LENGTH_MEASURE( 1.000000000000000082E-05 ), #82, 'distance_accuracy_value', 'NONE');
#32 = DIRECTION ( 'NONE',  ( 0.000000000000000000, 0.000000000000000000, 1.000000000000000000 ) ) ;
#33 = ORIENTED_EDGE ( 'NONE', *, *, #4, .F. ) ;
#34 = CALENDAR_DATE ( 2022, 7, 7 ) ;
#35 = ORIENTED_EDGE ( 'NONE', *, *, #277, .F. ) ;
#36 = TOROIDAL_SURFACE ( 'NONE', #63, 2.300000000000000266, 0.2000000000000000111 ) ;
#37 = DATE_TIME_ROLE ( 'creation_date' ) ;
#38 = ORIENTED_EDGE ( 'NONE', *, *, #131, .T. ) ;
#39 = MANIFOLD_SOLID_BREP ( 'Zaoblit1', #225 ) ;
#40 = CALENDAR_DATE ( 2022, 7, 7 ) ;
#41 = EDGE_LOOP ( 'NONE', ( #33, #38, #30, #13 ) ) ;
#42 = ORIENTED_EDGE ( 'NONE', *, *, #155, .F. ) ;
#43 = APPLICATION_CONTEXT ( 'configuration controlled 3d designs of mechanical parts and assemblies' ) ;
#44 = FACE_OUTER_BOUND ( 'NONE', #223, .T. ) ;
#45 = CC_DESIGN_PERSON_AND_ORGANIZATION_ASSIGNMENT ( #243, #164, ( #218 ) ) ;
#46 = ORIENTED_EDGE ( 'NONE', *, *, #248, .F. ) ;
#47 = ORIENTED_EDGE ( 'NONE', *, *, #146, .T. ) ;
#48 = CIRCLE ( 'NONE', #242, 2.100000000000000089 ) ;
#49 = ORIENTED_EDGE ( 'NONE', *, *, #131, .F. ) ;
#50 = DIRECTION ( 'NONE',  ( 1.000000000000000000, 0.000000000000000000, 0.000000000000000000 ) ) ;
#51 = CARTESIAN_POINT ( 'NONE',  ( 4.000000000000000000, 4.898587196589412829E-16, 0.000000000000000000 ) ) ;
#52 = AXIS2_PLACEMENT_3D ( 'NONE', #186, #24, #96 ) ;
#53 = DIRECTION ( 'NONE',  ( 1.000000000000000000, 0.000000000000000000, 0.000000000000000000 ) ) ;
#54 = PRODUCT_DEFINITION_SHAPE ( 'NONE', 'NONE',  #179 ) ;
#55 = CARTESIAN_POINT ( 'NONE',  ( 0.000000000000000000, 0.000000000000000000, 3.000000000000000000 ) ) ;
#56 = EDGE_CURVE ( 'NONE', #272, #295, #109, .T. ) ;
#57 = CARTESIAN_POINT ( 'NONE',  ( 0.000000000000000000, 0.000000000000000000, 0.000000000000000000 ) ) ;
#58 = EDGE_CURVE ( 'NONE', #7, #127, #176, .T. ) ;
#59 = LOCAL_TIME ( 12, 24, 19.00000000000000000, #246 ) ;
#60 =( NAMED_UNIT ( * ) SI_UNIT ( $, .STERADIAN. ) SOLID_ANGLE_UNIT ( ) );
#61 = COORDINATED_UNIVERSAL_TIME_OFFSET ( 1, 0, .AHEAD. ) ;
#62 = ORIENTED_EDGE ( 'NONE', *, *, #83, .F. ) ;
#63 = AXIS2_PLACEMENT_3D ( 'NONE', #283, #74, #159 ) ;
#64 = PERSON_AND_ORGANIZATION_ROLE ( 'classification_officer' ) ;
#65 = EDGE_CURVE ( 'NONE', #292, #144, #290, .T. ) ;
#66 = FACE_BOUND ( 'NONE', #226, .T. ) ;
#67 = CARTESIAN_POINT ( 'NONE',  ( -4.000000000000000000, 0.000000000000000000, 3.000000000000000000 ) ) ;
#68 = CIRCLE ( 'NONE', #210, 2.100000000000000089 ) ;
#69 = DIRECTION ( 'NONE',  ( 0.000000000000000000, 0.000000000000000000, 1.000000000000000000 ) ) ;
#70 = ORIENTED_EDGE ( 'NONE', *, *, #250, .T. ) ;
#71 = DIRECTION ( 'NONE',  ( 1.000000000000000000, 0.000000000000000000, 0.000000000000000000 ) ) ;
#72 = VECTOR ( 'NONE', #73, 1000.000000000000000 ) ;
#73 = DIRECTION ( 'NONE',  ( -0.000000000000000000, -0.000000000000000000, -1.000000000000000000 ) ) ;
#74 = DIRECTION ( 'NONE',  ( 0.000000000000000000, 0.000000000000000000, 1.000000000000000000 ) ) ;
#75 = DIRECTION ( 'NONE',  ( -0.000000000000000000, -0.000000000000000000, -1.000000000000000000 ) ) ;
#76 = DIRECTION ( 'NONE',  ( 1.000000000000000000, 0.000000000000000000, 0.000000000000000000 ) ) ;
#77 = DIRECTION ( 'NONE',  ( 1.224646799147353207E-16, 1.000000000000000000, -0.000000000000000000 ) ) ;
#78 = DATE_AND_TIME ( #12, #282 ) ;
#79 = APPROVAL_STATUS ( 'not_yet_approved' ) ;
#80 = CIRCLE ( 'NONE', #281, 0.2000000000000000944 ) ;
#81 = COORDINATED_UNIVERSAL_TIME_OFFSET ( 1, 0, .AHEAD. ) ;
#82 =( LENGTH_UNIT ( ) NAMED_UNIT ( * ) SI_UNIT ( .MILLI., .METRE. ) );
#83 = EDGE_CURVE ( 'NONE', #113, #144, #237, .T. ) ;
#84 = CC_DESIGN_PERSON_AND_ORGANIZATION_ASSIGNMENT ( #268, #64, ( #168 ) ) ;
#85 = SECURITY_CLASSIFICATION_LEVEL ( 'unclassified' ) ;
#86 = EDGE_LOOP ( 'NONE', ( #112, #130, #125, #62 ) ) ;
#87 = CARTESIAN_POINT ( 'NONE',  ( -2.100000000000000089, 0.000000000000000000, 203.0000000000000000 ) ) ;
#88 = APPROVAL ( #288, 'NEURÈENÝ' ) ;
#89 = ORIENTED_EDGE ( 'NONE', *, *, #58, .T. ) ;
#90 = CARTESIAN_POINT ( 'NONE',  ( 0.000000000000000000, 0.000000000000000000, 3.000000000000000000 ) ) ;
#91 = TOROIDAL_SURFACE ( 'NONE', #183, 2.300000000000000266, 0.2000000000000000111 ) ;
#92 = CARTESIAN_POINT ( 'NONE',  ( -2.100000000000000089, 0.000000000000000000, 3.200000000000008171 ) ) ;
#93 = DIRECTION ( 'NONE',  ( 1.000000000000000000, 0.000000000000000000, 0.000000000000000000 ) ) ;
#94 = CARTESIAN_POINT ( 'NONE',  ( 4.000000000000000000, 4.898587196589412829E-16, 3.000000000000000000 ) ) ;
#95 = CARTESIAN_POINT ( 'NONE',  ( -2.300000000000000266, 2.816687638038912549E-16, 3.000000000000004441 ) ) ;
#96 = DIRECTION ( 'NONE',  ( 1.000000000000000000, 0.000000000000000000, 0.000000000000000000 ) ) ;
#97 = DIRECTION ( 'NONE',  ( 0.000000000000000000, 0.000000000000000000, 1.000000000000000000 ) ) ;
#98 = AXIS2_PLACEMENT_3D ( 'NONE', #152, #251, #110 ) ;
#99 = DIRECTION ( 'NONE',  ( 0.000000000000000000, 0.000000000000000000, 1.000000000000000000 ) ) ;
#100 = PERSON_AND_ORGANIZATION ( #294, #149 ) ;
#101 = APPROVAL_ROLE ( '' ) ;
#102 = EDGE_LOOP ( 'NONE', ( #46, #165, #275, #128 ) ) ;
#103 = CARTESIAN_POINT ( 'NONE',  ( 0.000000000000000000, 0.000000000000000000, 0.000000000000000000 ) ) ;
#104 = VERTEX_POINT ( 'NONE', #67 ) ;
#105 = ADVANCED_FACE ( 'NONE', ( #132 ), #229, .T. ) ;
#106 = EDGE_CURVE ( 'NONE', #144, #292, #161, .T. ) ;
#107 = APPLICATION_PROTOCOL_DEFINITION ( 'international standard', 'config_control_design', 1994, #211 ) ;
#108 = ORIENTED_EDGE ( 'NONE', *, *, #65, .T. ) ;
#109 = CIRCLE ( 'NONE', #253, 4.000000000000000000 ) ;
#110 = DIRECTION ( 'NONE',  ( 1.000000000000000000, 0.000000000000000000, 0.000000000000000000 ) ) ;
#111 = ORIENTED_EDGE ( 'NONE', *, *, #58, .F. ) ;
#112 = ORIENTED_EDGE ( 'NONE', *, *, #187, .F. ) ;
#113 = VERTEX_POINT ( 'NONE', #254 ) ;
#114 = ADVANCED_FACE ( 'NONE', ( #44 ), #300, .T. ) ;
#115 = ORIENTED_EDGE ( 'NONE', *, *, #117, .T. ) ;
#116 = CARTESIAN_POINT ( 'NONE',  ( 4.000000000000000000, 4.898587196589412829E-16, 3.000000000000000000 ) ) ;
#117 = EDGE_CURVE ( 'NONE', #104, #302, #200, .T. ) ;
#118 = FACE_OUTER_BOUND ( 'NONE', #279, .T. ) ;
#119 = CARTESIAN_POINT ( 'NONE',  ( 0.000000000000000000, 0.000000000000000000, 3.200000000000008171 ) ) ;
#120 = DIRECTION ( 'NONE',  ( -0.000000000000000000, -0.000000000000000000, -1.000000000000000000 ) ) ;
#121 = ADVANCED_BREP_SHAPE_REPRESENTATION ( '0039', ( #39, #286 ), #205 ) ;
#122 = PERSON_AND_ORGANIZATION_ROLE ( 'creator' ) ;
#123 = DATE_AND_TIME ( #34, #59 ) ;
#124 = AXIS2_PLACEMENT_3D ( 'NONE', #90, #154, #255 ) ;
#125 = ORIENTED_EDGE ( 'NONE', *, *, #106, .F. ) ;
#126 = PERSON_AND_ORGANIZATION ( #294, #149 ) ;
#127 = VERTEX_POINT ( 'NONE', #92 ) ;
#128 = ORIENTED_EDGE ( 'NONE', *, *, #65, .F. ) ;
#129 = CARTESIAN_POINT ( 'NONE',  ( 0.000000000000000000, 0.000000000000000000, 203.0000000000000000 ) ) ;
#130 = ORIENTED_EDGE ( 'NONE', *, *, #248, .T. ) ;
#131 = EDGE_CURVE ( 'NONE', #302, #272, #303, .T. ) ;
#132 = FACE_OUTER_BOUND ( 'NONE', #148, .T. ) ;
#133 = APPROVAL ( #196, 'NEURÈENÝ' ) ;
#134 = CIRCLE ( 'NONE', #217, 4.000000000000000000 ) ;
#135 = DIRECTION ( 'NONE',  ( -1.000000000000000000, 0.000000000000000000, 0.000000000000000000 ) ) ;
#136 = APPROVAL ( #79, 'NEURÈENÝ' ) ;
#137 = FACE_OUTER_BOUND ( 'NONE', #244, .T. ) ;
#138 = AXIS2_PLACEMENT_3D ( 'NONE', #129, #228, #298 ) ;
#139 = CARTESIAN_POINT ( 'NONE',  ( -4.000000000000000000, 0.000000000000000000, 3.000000000000000000 ) ) ;
#140 = CARTESIAN_POINT ( 'NONE',  ( -4.000000000000000000, 0.000000000000000000, 0.000000000000000000 ) ) ;
#141 = CARTESIAN_POINT ( 'NONE',  ( 0.000000000000000000, 0.000000000000000000, 0.000000000000000000 ) ) ;
#142 = CIRCLE ( 'NONE', #29, 2.100000000000000089 ) ;
#143 = PERSON_AND_ORGANIZATION ( #294, #149 ) ;
#144 = VERTEX_POINT ( 'NONE', #241 ) ;
#145 = DATE_AND_TIME ( #150, #231 ) ;
#146 = EDGE_CURVE ( 'NONE', #113, #127, #188, .T. ) ;
#147 = DATE_TIME_ROLE ( 'classification_date' ) ;
#148 = EDGE_LOOP ( 'NONE', ( #35, #256, #89, #174 ) ) ;
#149 = ORGANIZATION ( 'NEURÈENÝ', 'NEURÈENÝ', '' ) ;
#150 = CALENDAR_DATE ( 2022, 7, 7 ) ;
#151 = DIRECTION ( 'NONE',  ( -1.000000000000000000, 0.000000000000000000, 0.000000000000000000 ) ) ;
#152 = CARTESIAN_POINT ( 'NONE',  ( 0.000000000000000000, 0.000000000000000000, 3.000000000000000000 ) ) ;
#153 = AXIS2_PLACEMENT_3D ( 'NONE', #181, #201, #204 ) ;
#154 = DIRECTION ( 'NONE',  ( 0.000000000000000000, 0.000000000000000000, 1.000000000000000000 ) ) ;
#155 = EDGE_CURVE ( 'NONE', #295, #272, #305, .T. ) ;
#156 = DIRECTION ( 'NONE',  ( 0.000000000000000000, 0.000000000000000000, 1.000000000000000000 ) ) ;
#157 = PLANE ( 'NONE',  #167 ) ;
#158 = DIRECTION ( 'NONE',  ( 0.000000000000000000, 0.000000000000000000, 1.000000000000000000 ) ) ;
#159 = DIRECTION ( 'NONE',  ( 1.000000000000000000, 0.000000000000000000, 0.000000000000000000 ) ) ;
#160 = CARTESIAN_POINT ( 'NONE',  ( -2.300000000000000266, 2.816687638038912549E-16, 3.200000000000008171 ) ) ;
#161 = CIRCLE ( 'NONE', #98, 2.300000000000000266 ) ;
#162 = FACE_OUTER_BOUND ( 'NONE', #41, .T. ) ;
#163 = LINE ( 'NONE', #306, #14 ) ;
#164 = PERSON_AND_ORGANIZATION_ROLE ( 'design_supplier' ) ;
#165 = ORIENTED_EDGE ( 'NONE', *, *, #146, .F. ) ;
#166 = AXIS2_PLACEMENT_3D ( 'NONE', #202, #257, #208 ) ;
#167 = AXIS2_PLACEMENT_3D ( 'NONE', #207, #69, #233 ) ;
#168 = SECURITY_CLASSIFICATION ( '', '', #85 ) ;
#169 = PERSON_AND_ORGANIZATION_ROLE ( 'creator' ) ;
#170 = PERSON_AND_ORGANIZATION ( #294, #149 ) ;
#171 = ORIENTED_EDGE ( 'NONE', *, *, #4, .T. ) ;
#172 = APPROVAL_DATE_TIME ( #145, #133 ) ;
#173 = LOCAL_TIME ( 12, 24, 19.00000000000000000, #8 ) ;
#174 = ORIENTED_EDGE ( 'NONE', *, *, #187, .T. ) ;
#175 = ORIENTED_EDGE ( 'NONE', *, *, #155, .T. ) ;
#176 = LINE ( 'NONE', #87, #23 ) ;
#177 = ORIENTED_EDGE ( 'NONE', *, *, #277, .T. ) ;
#178 = VECTOR ( 'NONE', #238, 1000.000000000000000 ) ;
#179 = PRODUCT_DEFINITION ( 'NEZNÁMÝ', '', #218, #235 ) ;
#180 = CARTESIAN_POINT ( 'NONE',  ( -2.100000000000000089, 0.000000000000000000, 203.0000000000000000 ) ) ;
#181 = CARTESIAN_POINT ( 'NONE',  ( 0.000000000000000000, 0.000000000000000000, 3.000000000000000000 ) ) ;
#182 = CARTESIAN_POINT ( 'NONE',  ( 0.000000000000000000, 0.000000000000000000, 3.200000000000008171 ) ) ;
#183 = AXIS2_PLACEMENT_3D ( 'NONE', #182, #158, #50 ) ;
#184 = APPROVAL_PERSON_ORGANIZATION ( #126, #88, #101 ) ;
#185 = CARTESIAN_POINT ( 'NONE',  ( 2.100000000000000089, 2.571758278209441957E-16, 203.0000000000000000 ) ) ;
#186 = CARTESIAN_POINT ( 'NONE',  ( 0.000000000000000000, 0.000000000000000000, 3.200000000000008171 ) ) ;
#187 = EDGE_CURVE ( 'NONE', #127, #113, #68, .T. ) ;
#188 = CIRCLE ( 'NONE', #52, 2.100000000000000089 ) ;
#189 = ADVANCED_FACE ( 'NONE', ( #137 ), #191, .T. ) ;
#190 = APPROVAL_PERSON_ORGANIZATION ( #100, #136, #289 ) ;
#191 = CYLINDRICAL_SURFACE ( 'NONE', #262, 2.100000000000000089 ) ;
#192 = PRODUCT ( '0039', '0039', '', ( #10 ) ) ;
#193 = APPROVAL_DATE_TIME ( #78, #88 ) ;
#194 = CC_DESIGN_PERSON_AND_ORGANIZATION_ASSIGNMENT ( #220, #222, ( #192 ) ) ;
#195 = CC_DESIGN_APPROVAL ( #88, ( #218 ) ) ;
#196 = APPROVAL_STATUS ( 'not_yet_approved' ) ;
#197 = APPLICATION_PROTOCOL_DEFINITION ( 'international standard', 'config_control_design', 1994, #43 ) ;
#198 = ORIENTED_EDGE ( 'NONE', *, *, #117, .F. ) ;
#199 = PERSON_AND_ORGANIZATION ( #294, #149 ) ;
#200 = CIRCLE ( 'NONE', #124, 4.000000000000000000 ) ;
#201 = DIRECTION ( 'NONE',  ( -0.000000000000000000, -0.000000000000000000, -1.000000000000000000 ) ) ;
#202 = CARTESIAN_POINT ( 'NONE',  ( 2.300000000000000266, 0.000000000000000000, 3.200000000000008171 ) ) ;
#203 = CC_DESIGN_PERSON_AND_ORGANIZATION_ASSIGNMENT ( #199, #169, ( #218 ) ) ;
#204 = DIRECTION ( 'NONE',  ( 1.000000000000000000, 0.000000000000000000, 0.000000000000000000 ) ) ;
#205 =( GEOMETRIC_REPRESENTATION_CONTEXT ( 3 ) GLOBAL_UNCERTAINTY_ASSIGNED_CONTEXT ( ( #31 ) ) GLOBAL_UNIT_ASSIGNED_CONTEXT ( ( #82, #5, #60 ) ) REPRESENTATION_CONTEXT ( 'NONE', 'WORKASPACE' ) );
#206 = APPROVAL_DATE_TIME ( #123, #136 ) ;
#207 = CARTESIAN_POINT ( 'NONE',  ( 0.000000000000000000, 0.000000000000000000, 3.000000000000000000 ) ) ;
#208 = DIRECTION ( 'NONE',  ( 0.000000000000000000, 0.000000000000000000, -1.000000000000000000 ) ) ;
#209 = DIRECTION ( 'NONE',  ( 1.000000000000000000, 0.000000000000000000, 0.000000000000000000 ) ) ;
#210 = AXIS2_PLACEMENT_3D ( 'NONE', #119, #236, #209 ) ;
#211 = APPLICATION_CONTEXT ( 'configuration controlled 3d designs of mechanical parts and assemblies' ) ;
#212 = DIRECTION ( 'NONE',  ( -1.000000000000000000, 0.000000000000000000, 0.000000000000000000 ) ) ;
#213 = DIRECTION ( 'NONE',  ( 0.000000000000000000, 0.000000000000000000, 1.000000000000000000 ) ) ;
#214 = CC_DESIGN_DATE_AND_TIME_ASSIGNMENT ( #219, #147, ( #168 ) ) ;
#215 = ADVANCED_FACE ( 'NONE', ( #118 ), #240, .T. ) ;
#216 = DIRECTION ( 'NONE',  ( 1.000000000000000000, 0.000000000000000000, 0.000000000000000000 ) ) ;
#217 = AXIS2_PLACEMENT_3D ( 'NONE', #16, #297, #71 ) ;
#218 = PRODUCT_DEFINITION_FORMATION_WITH_SPECIFIED_SOURCE ( 'LIBOVOLNÝ', '', #192, .NOT_KNOWN. ) ;
#219 = DATE_AND_TIME ( #6, #232 ) ;
#220 = PERSON_AND_ORGANIZATION ( #294, #149 ) ;
#221 = VERTEX_POINT ( 'NONE', #185 ) ;
#222 = PERSON_AND_ORGANIZATION_ROLE ( 'design_owner' ) ;
#223 = EDGE_LOOP ( 'NONE', ( #70, #9 ) ) ;
#224 = AXIS2_PLACEMENT_3D ( 'NONE', #57, #213, #2 ) ;
#225 = CLOSED_SHELL ( 'NONE', ( #304, #189, #293, #215, #19, #239, #105, #114, #301 ) ) ;
#226 = EDGE_LOOP ( 'NONE', ( #276, #108 ) ) ;
#227 = CC_DESIGN_SECURITY_CLASSIFICATION ( #168, ( #218 ) ) ;
#228 = DIRECTION ( 'NONE',  ( 0.000000000000000000, 0.000000000000000000, 1.000000000000000000 ) ) ;
#229 = CYLINDRICAL_SURFACE ( 'NONE', #267, 2.100000000000000089 ) ;
#230 = DIRECTION ( 'NONE',  ( -0.000000000000000000, -0.000000000000000000, -1.000000000000000000 ) ) ;
#231 = LOCAL_TIME ( 12, 24, 19.00000000000000000, #270 ) ;
#232 = LOCAL_TIME ( 12, 24, 19.00000000000000000, #61 ) ;
#233 = DIRECTION ( 'NONE',  ( 1.000000000000000000, 0.000000000000000000, -0.000000000000000000 ) ) ;
#234 = DIRECTION ( 'NONE',  ( -0.000000000000000000, -0.000000000000000000, -1.000000000000000000 ) ) ;
#235 = DESIGN_CONTEXT ( 'detailed design', #211, 'design' ) ;
#236 = DIRECTION ( 'NONE',  ( 0.000000000000000000, 0.000000000000000000, 1.000000000000000000 ) ) ;
#237 = CIRCLE ( 'NONE', #166, 0.2000000000000000944 ) ;
#238 = DIRECTION ( 'NONE',  ( -0.000000000000000000, -0.000000000000000000, -1.000000000000000000 ) ) ;
#239 = ADVANCED_FACE ( 'NONE', ( #259 ), #280, .F. ) ;
#240 = CYLINDRICAL_SURFACE ( 'NONE', #296, 4.000000000000000000 ) ;
#241 = CARTESIAN_POINT ( 'NONE',  ( 2.300000000000000266, 0.000000000000000000, 3.000000000000004441 ) ) ;
#242 = AXIS2_PLACEMENT_3D ( 'NONE', #1, #97, #76 ) ;
#243 = PERSON_AND_ORGANIZATION ( #294, #149 ) ;
#244 = EDGE_LOOP ( 'NONE', ( #266, #177, #47, #111 ) ) ;
#245 = EDGE_LOOP ( 'NONE', ( #42, #249 ) ) ;
#246 = COORDINATED_UNIVERSAL_TIME_OFFSET ( 1, 0, .AHEAD. ) ;
#247 = AXIS2_PLACEMENT_3D ( 'NONE', #141, #99, #216 ) ;
#248 = EDGE_CURVE ( 'NONE', #127, #292, #80, .T. ) ;
#249 = ORIENTED_EDGE ( 'NONE', *, *, #56, .F. ) ;
#250 = EDGE_CURVE ( 'NONE', #7, #221, #142, .T. ) ;
#251 = DIRECTION ( 'NONE',  ( -0.000000000000000000, -0.000000000000000000, -1.000000000000000000 ) ) ;
#252 = EDGE_CURVE ( 'NONE', #104, #295, #264, .T. ) ;
#253 = AXIS2_PLACEMENT_3D ( 'NONE', #22, #156, #93 ) ;
#254 = CARTESIAN_POINT ( 'NONE',  ( 2.100000000000000089, 2.571758278209441957E-16, 3.200000000000008171 ) ) ;
#255 = DIRECTION ( 'NONE',  ( 1.000000000000000000, 0.000000000000000000, 0.000000000000000000 ) ) ;
#256 = ORIENTED_EDGE ( 'NONE', *, *, #250, .F. ) ;
#257 = DIRECTION ( 'NONE',  ( 0.000000000000000000, -1.000000000000000000, 0.000000000000000000 ) ) ;
#258 = FACE_OUTER_BOUND ( 'NONE', #86, .T. ) ;
#259 = FACE_OUTER_BOUND ( 'NONE', #245, .T. ) ;
#260 = EDGE_CURVE ( 'NONE', #221, #7, #48, .T. ) ;
#261 = DIRECTION ( 'NONE',  ( 0.000000000000000000, 0.000000000000000000, 1.000000000000000000 ) ) ;
#262 = AXIS2_PLACEMENT_3D ( 'NONE', #287, #75, #285 ) ;
#263 = CYLINDRICAL_SURFACE ( 'NONE', #299, 4.000000000000000000 ) ;
#264 = LINE ( 'NONE', #139, #178 ) ;
#265 = DATE_AND_TIME ( #40, #173 ) ;
#266 = ORIENTED_EDGE ( 'NONE', *, *, #260, .F. ) ;
#267 = AXIS2_PLACEMENT_3D ( 'NONE', #18, #230, #151 ) ;
#268 = PERSON_AND_ORGANIZATION ( #294, #149 ) ;
#269 = PRODUCT_RELATED_PRODUCT_CATEGORY ( 'detail', '', ( #192 ) ) ;
#270 = COORDINATED_UNIVERSAL_TIME_OFFSET ( 1, 0, .AHEAD. ) ;
#271 = APPROVAL_ROLE ( '' ) ;
#272 = VERTEX_POINT ( 'NONE', #51 ) ;
#273 = DIRECTION ( 'NONE',  ( -0.000000000000000000, -0.000000000000000000, -1.000000000000000000 ) ) ;
#274 = CC_DESIGN_APPROVAL ( #136, ( #168 ) ) ;
#275 = ORIENTED_EDGE ( 'NONE', *, *, #83, .T. ) ;
#276 = ORIENTED_EDGE ( 'NONE', *, *, #106, .T. ) ;
#277 = EDGE_CURVE ( 'NONE', #221, #113, #163, .T. ) ;
#278 = SHAPE_DEFINITION_REPRESENTATION ( #54, #121 ) ;
#279 = EDGE_LOOP ( 'NONE', ( #49, #198, #11, #175 ) ) ;
#280 = PLANE ( 'NONE',  #224 ) ;
#281 = AXIS2_PLACEMENT_3D ( 'NONE', #160, #77, #284 ) ;
#282 = LOCAL_TIME ( 12, 24, 19.00000000000000000, #81 ) ;
#283 = CARTESIAN_POINT ( 'NONE',  ( 0.000000000000000000, 0.000000000000000000, 3.200000000000008171 ) ) ;
#284 = DIRECTION ( 'NONE',  ( -1.000000000000000000, 1.224646799147353207E-16, 0.000000000000000000 ) ) ;
#285 = DIRECTION ( 'NONE',  ( -1.000000000000000000, 0.000000000000000000, 0.000000000000000000 ) ) ;
#286 = AXIS2_PLACEMENT_3D ( 'NONE', #103, #32, #291 ) ;
#287 = CARTESIAN_POINT ( 'NONE',  ( 0.000000000000000000, 0.000000000000000000, 203.0000000000000000 ) ) ;
#288 = APPROVAL_STATUS ( 'not_yet_approved' ) ;
#289 = APPROVAL_ROLE ( '' ) ;
#290 = CIRCLE ( 'NONE', #153, 2.300000000000000266 ) ;
#291 = DIRECTION ( 'NONE',  ( 1.000000000000000000, 0.000000000000000000, 0.000000000000000000 ) ) ;
#292 = VERTEX_POINT ( 'NONE', #95 ) ;
#293 = ADVANCED_FACE ( 'NONE', ( #162 ), #263, .T. ) ;
#294 = PERSON ( 'NEURÈENÝ', 'NEURÈENÝ', 'NEURÈENÝ', ('NEURÈENÝ'), ('NEURÈENÝ'), ('NEURÈENÝ') ) ;
#295 = VERTEX_POINT ( 'NONE', #140 ) ;
#296 = AXIS2_PLACEMENT_3D ( 'NONE', #307, #25, #212 ) ;
#297 = DIRECTION ( 'NONE',  ( 0.000000000000000000, 0.000000000000000000, 1.000000000000000000 ) ) ;
#298 = DIRECTION ( 'NONE',  ( 1.000000000000000000, 0.000000000000000000, -0.000000000000000000 ) ) ;
#299 = AXIS2_PLACEMENT_3D ( 'NONE', #55, #120, #135 ) ;
#300 = PLANE ( 'NONE',  #138 ) ;
#301 = ADVANCED_FACE ( 'NONE', ( #28 ), #91, .F. ) ;
#302 = VERTEX_POINT ( 'NONE', #94 ) ;
#303 = LINE ( 'NONE', #116, #72 ) ;
#304 = ADVANCED_FACE ( 'NONE', ( #258 ), #36, .F. ) ;
#305 = CIRCLE ( 'NONE', #247, 4.000000000000000000 ) ;
#306 = CARTESIAN_POINT ( 'NONE',  ( 2.100000000000000089, 2.571758278209441957E-16, 203.0000000000000000 ) ) ;
#307 = CARTESIAN_POINT ( 'NONE',  ( 0.000000000000000000, 0.000000000000000000, 3.000000000000000000 ) ) ;
ENDSEC;
END-ISO-10303-21;
