ISO-10303-21;
HEADER;
FILE_DESCRIPTION (( 'STEP AP203' ),
    '1' );
FILE_NAME ('a694.STEP',
    '2023-02-12T12:42:55',
    ( '' ),
    ( '' ),
    'SwSTEP 2.0',
    'SolidWorks 2019',
    '' );
FILE_SCHEMA (( 'CONFIG_CONTROL_DESIGN' ));
ENDSEC;

DATA;
#1 = CARTESIAN_POINT ( 'NONE',  ( 0.000000000000000000, 0.000000000000000000, 0.000000000000000000 ) ) ;
#2 = DIRECTION ( 'NONE',  ( 0.000000000000000000, 0.000000000000000000, 1.000000000000000000 ) ) ;
#3 = EDGE_CURVE ( 'NONE', #88, #189, #251, .T. ) ;
#4 = ADVANCED_FACE ( 'NONE', ( #20 ), #230, .T. ) ;
#5 = CARTESIAN_POINT ( 'NONE',  ( 3.500000000000000444, 4.286263797015737088E-16, 3.000000000000000000 ) ) ;
#6 = ORIENTED_EDGE ( 'NONE', *, *, #120, .F. ) ;
#7 = LINE ( 'NONE', #160, #102 ) ;
#8 = EDGE_LOOP ( 'NONE', ( #128, #95, #75, #212 ) ) ;
#9 = CALENDAR_DATE ( 2023, 12, 2 ) ;
#10 = APPROVAL_PERSON_ORGANIZATION ( #205, #41, #127 ) ;
#11 = ORIENTED_EDGE ( 'NONE', *, *, #239, .F. ) ;
#12 = EDGE_CURVE ( 'NONE', #173, #88, #104, .T. ) ;
#13 = PERSON_AND_ORGANIZATION ( #254, #149 ) ;
#14 = EDGE_CURVE ( 'NONE', #173, #74, #152, .T. ) ;
#15 = ORIENTED_EDGE ( 'NONE', *, *, #148, .F. ) ;
#16 = APPROVAL_DATE_TIME ( #247, #41 ) ;
#17 = DIRECTION ( 'NONE',  ( 0.000000000000000000, 0.000000000000000000, 1.000000000000000000 ) ) ;
#18 = DESIGN_CONTEXT ( 'detailed design', #93, 'design' ) ;
#19 = DATE_TIME_ROLE ( 'creation_date' ) ;
#20 = FACE_OUTER_BOUND ( 'NONE', #8, .T. ) ;
#21 = FACE_OUTER_BOUND ( 'NONE', #51, .T. ) ;
#22 = FACE_OUTER_BOUND ( 'NONE', #203, .T. ) ;
#23 = ADVANCED_BREP_SHAPE_REPRESENTATION ( 'a694', ( #153, #108 ), #195 ) ;
#24 = DIRECTION ( 'NONE',  ( -0.000000000000000000, -0.000000000000000000, -1.000000000000000000 ) ) ;
#25 = CIRCLE ( 'NONE', #197, 1.750000000000000000 ) ;
#26 = CC_DESIGN_PERSON_AND_ORGANIZATION_ASSIGNMENT ( #187, #171, ( #228 ) ) ;
#27 = CYLINDRICAL_SURFACE ( 'NONE', #234, 3.500000000000000444 ) ;
#28 = VECTOR ( 'NONE', #117, 1000.000000000000000 ) ;
#29 = ORIENTED_EDGE ( 'NONE', *, *, #36, .F. ) ;
#30 = APPROVAL_STATUS ( 'not_yet_approved' ) ;
#31 = AXIS2_PLACEMENT_3D ( 'NONE', #110, #215, #186 ) ;
#32 = SHAPE_DEFINITION_REPRESENTATION ( #103, #23 ) ;
#33 = CIRCLE ( 'NONE', #106, 1.750000000000000000 ) ;
#34 = VERTEX_POINT ( 'NONE', #233 ) ;
#35 =( NAMED_UNIT ( * ) SI_UNIT ( $, .STERADIAN. ) SOLID_ANGLE_UNIT ( ) );
#36 = EDGE_CURVE ( 'NONE', #255, #34, #236, .T. ) ;
#37 = CALENDAR_DATE ( 2023, 12, 2 ) ;
#38 = CARTESIAN_POINT ( 'NONE',  ( 0.000000000000000000, 0.000000000000000000, 125.0000000000000000 ) ) ;
#39 =( NAMED_UNIT ( * ) PLANE_ANGLE_UNIT ( ) SI_UNIT ( $, .RADIAN. ) );
#40 = CARTESIAN_POINT ( 'NONE',  ( 3.500000000000000444, 4.286263797015737088E-16, 3.000000000000000000 ) ) ;
#41 = APPROVAL ( #30, 'NEURÈENÝ' ) ;
#42 = PLANE ( 'NONE',  #80 ) ;
#43 = CIRCLE ( 'NONE', #170, 3.500000000000000444 ) ;
#44 = DIRECTION ( 'NONE',  ( 0.000000000000000000, 0.000000000000000000, 1.000000000000000000 ) ) ;
#45 = DIRECTION ( 'NONE',  ( 1.000000000000000000, 0.000000000000000000, 0.000000000000000000 ) ) ;
#46 = UNCERTAINTY_MEASURE_WITH_UNIT (LENGTH_MEASURE( 1.000000000000000082E-05 ), #109, 'distance_accuracy_value', 'NONE');
#47 = LOCAL_TIME ( 13, 42, 55.00000000000000000, #209 ) ;
#48 = DIRECTION ( 'NONE',  ( 1.000000000000000000, 0.000000000000000000, 0.000000000000000000 ) ) ;
#49 = VERTEX_POINT ( 'NONE', #213 ) ;
#50 = COORDINATED_UNIVERSAL_TIME_OFFSET ( 1, 0, .AHEAD. ) ;
#51 = EDGE_LOOP ( 'NONE', ( #96, #69, #191, #246 ) ) ;
#52 = DATE_AND_TIME ( #68, #165 ) ;
#53 = AXIS2_PLACEMENT_3D ( 'NONE', #89, #138, #60 ) ;
#54 = ORIENTED_EDGE ( 'NONE', *, *, #94, .F. ) ;
#55 = ORIENTED_EDGE ( 'NONE', *, *, #120, .T. ) ;
#56 = COORDINATED_UNIVERSAL_TIME_OFFSET ( 1, 0, .AHEAD. ) ;
#57 = COORDINATED_UNIVERSAL_TIME_OFFSET ( 1, 0, .AHEAD. ) ;
#58 = APPLICATION_CONTEXT ( 'configuration controlled 3d designs of mechanical parts and assemblies' ) ;
#59 = DIRECTION ( 'NONE',  ( 0.000000000000000000, 0.000000000000000000, 1.000000000000000000 ) ) ;
#60 = DIRECTION ( 'NONE',  ( 1.000000000000000000, 0.000000000000000000, 0.000000000000000000 ) ) ;
#61 = ADVANCED_FACE ( 'NONE', ( #21 ), #99, .T. ) ;
#62 = AXIS2_PLACEMENT_3D ( 'NONE', #65, #157, #237 ) ;
#63 = DIRECTION ( 'NONE',  ( -1.000000000000000000, 0.000000000000000000, 0.000000000000000000 ) ) ;
#64 = CARTESIAN_POINT ( 'NONE',  ( -1.750000000000000000, 0.000000000000000000, 3.000000000000000000 ) ) ;
#65 = CARTESIAN_POINT ( 'NONE',  ( 0.000000000000000000, 0.000000000000000000, 125.0000000000000000 ) ) ;
#66 = ADVANCED_FACE ( 'NONE', ( #136, #185 ), #87, .T. ) ;
#67 = LOCAL_TIME ( 13, 42, 55.00000000000000000, #57 ) ;
#68 = CALENDAR_DATE ( 2023, 12, 2 ) ;
#69 = ORIENTED_EDGE ( 'NONE', *, *, #12, .F. ) ;
#70 = DATE_AND_TIME ( #92, #188 ) ;
#71 = EDGE_CURVE ( 'NONE', #255, #126, #7, .T. ) ;
#72 = EDGE_LOOP ( 'NONE', ( #107, #55 ) ) ;
#73 = APPLICATION_PROTOCOL_DEFINITION ( 'international standard', 'config_control_design', 1994, #93 ) ;
#74 = VERTEX_POINT ( 'NONE', #137 ) ;
#75 = ORIENTED_EDGE ( 'NONE', *, *, #94, .T. ) ;
#76 = PERSON_AND_ORGANIZATION ( #254, #149 ) ;
#77 = CARTESIAN_POINT ( 'NONE',  ( 0.000000000000000000, 0.000000000000000000, 3.000000000000000000 ) ) ;
#78 = DIRECTION ( 'NONE',  ( -0.000000000000000000, -0.000000000000000000, -1.000000000000000000 ) ) ;
#79 = ADVANCED_FACE ( 'NONE', ( #199 ), #27, .T. ) ;
#80 = AXIS2_PLACEMENT_3D ( 'NONE', #216, #222, #101 ) ;
#81 = DIRECTION ( 'NONE',  ( 1.000000000000000000, 0.000000000000000000, 0.000000000000000000 ) ) ;
#82 = ORIENTED_EDGE ( 'NONE', *, *, #71, .T. ) ;
#83 = PLANE ( 'NONE',  #62 ) ;
#84 = CC_DESIGN_APPROVAL ( #41, ( #228 ) ) ;
#85 = FACE_OUTER_BOUND ( 'NONE', #163, .T. ) ;
#86 = PRODUCT_RELATED_PRODUCT_CATEGORY ( 'detail', '', ( #158 ) ) ;
#87 = PLANE ( 'NONE',  #211 ) ;
#88 = VERTEX_POINT ( 'NONE', #5 ) ;
#89 = CARTESIAN_POINT ( 'NONE',  ( 0.000000000000000000, 0.000000000000000000, 0.000000000000000000 ) ) ;
#90 = CIRCLE ( 'NONE', #31, 1.750000000000000000 ) ;
#91 = CC_DESIGN_APPROVAL ( #183, ( #154 ) ) ;
#92 = CALENDAR_DATE ( 2023, 12, 2 ) ;
#93 = APPLICATION_CONTEXT ( 'configuration controlled 3d designs of mechanical parts and assemblies' ) ;
#94 = EDGE_CURVE ( 'NONE', #49, #126, #90, .T. ) ;
#95 = ORIENTED_EDGE ( 'NONE', *, *, #239, .T. ) ;
#96 = ORIENTED_EDGE ( 'NONE', *, *, #3, .F. ) ;
#97 = PERSON_AND_ORGANIZATION ( #254, #149 ) ;
#98 = CARTESIAN_POINT ( 'NONE',  ( 0.000000000000000000, 0.000000000000000000, 0.000000000000000000 ) ) ;
#99 = CYLINDRICAL_SURFACE ( 'NONE', #121, 3.500000000000000444 ) ;
#100 = DIRECTION ( 'NONE',  ( 1.000000000000000000, 0.000000000000000000, 0.000000000000000000 ) ) ;
#101 = DIRECTION ( 'NONE',  ( 1.000000000000000000, 0.000000000000000000, -0.000000000000000000 ) ) ;
#102 = VECTOR ( 'NONE', #181, 1000.000000000000000 ) ;
#103 = PRODUCT_DEFINITION_SHAPE ( 'NONE', 'NONE',  #154 ) ;
#104 = CIRCLE ( 'NONE', #220, 3.500000000000000444 ) ;
#105 = DIRECTION ( 'NONE',  ( -0.000000000000000000, -0.000000000000000000, -1.000000000000000000 ) ) ;
#106 = AXIS2_PLACEMENT_3D ( 'NONE', #164, #2, #196 ) ;
#107 = ORIENTED_EDGE ( 'NONE', *, *, #12, .T. ) ;
#108 = AXIS2_PLACEMENT_3D ( 'NONE', #98, #231, #166 ) ;
#109 =( LENGTH_UNIT ( ) NAMED_UNIT ( * ) SI_UNIT ( .MILLI., .METRE. ) );
#110 = CARTESIAN_POINT ( 'NONE',  ( 0.000000000000000000, 0.000000000000000000, 3.000000000000000000 ) ) ;
#111 = APPROVAL_STATUS ( 'not_yet_approved' ) ;
#112 = EDGE_LOOP ( 'NONE', ( #15, #54 ) ) ;
#113 = PERSON_AND_ORGANIZATION_ROLE ( 'design_owner' ) ;
#114 = ADVANCED_FACE ( 'NONE', ( #85 ), #42, .F. ) ;
#115 = CALENDAR_DATE ( 2023, 12, 2 ) ;
#116 = DIRECTION ( 'NONE',  ( -0.000000000000000000, -0.000000000000000000, -1.000000000000000000 ) ) ;
#117 = DIRECTION ( 'NONE',  ( -0.000000000000000000, -0.000000000000000000, -1.000000000000000000 ) ) ;
#118 = CARTESIAN_POINT ( 'NONE',  ( 0.000000000000000000, 0.000000000000000000, 125.0000000000000000 ) ) ;
#119 = CARTESIAN_POINT ( 'NONE',  ( 0.000000000000000000, 0.000000000000000000, 125.0000000000000000 ) ) ;
#120 = EDGE_CURVE ( 'NONE', #88, #173, #176, .T. ) ;
#121 = AXIS2_PLACEMENT_3D ( 'NONE', #177, #156, #235 ) ;
#122 = AXIS2_PLACEMENT_3D ( 'NONE', #119, #24, #63 ) ;
#123 = CARTESIAN_POINT ( 'NONE',  ( 0.000000000000000000, 0.000000000000000000, 3.000000000000000000 ) ) ;
#124 = DIRECTION ( 'NONE',  ( 1.000000000000000000, 0.000000000000000000, -0.000000000000000000 ) ) ;
#125 = FACE_OUTER_BOUND ( 'NONE', #167, .T. ) ;
#126 = VERTEX_POINT ( 'NONE', #64 ) ;
#127 = APPROVAL_ROLE ( '' ) ;
#128 = ORIENTED_EDGE ( 'NONE', *, *, #194, .F. ) ;
#129 = PERSON_AND_ORGANIZATION_ROLE ( 'creator' ) ;
#130 = AXIS2_PLACEMENT_3D ( 'NONE', #162, #241, #48 ) ;
#131 = ORIENTED_EDGE ( 'NONE', *, *, #180, .F. ) ;
#132 = CC_DESIGN_SECURITY_CLASSIFICATION ( #240, ( #228 ) ) ;
#133 = DATE_AND_TIME ( #115, #223 ) ;
#134 = APPROVAL ( #111, 'NEURÈENÝ' ) ;
#135 = DATE_AND_TIME ( #9, #67 ) ;
#136 = FACE_BOUND ( 'NONE', #112, .T. ) ;
#137 = CARTESIAN_POINT ( 'NONE',  ( -3.500000000000000444, 0.000000000000000000, 0.000000000000000000 ) ) ;
#138 = DIRECTION ( 'NONE',  ( 0.000000000000000000, 0.000000000000000000, 1.000000000000000000 ) ) ;
#139 = EDGE_CURVE ( 'NONE', #189, #74, #43, .T. ) ;
#140 = AXIS2_PLACEMENT_3D ( 'NONE', #38, #78, #192 ) ;
#141 = CC_DESIGN_DATE_AND_TIME_ASSIGNMENT ( #135, #147, ( #240 ) ) ;
#142 = DIRECTION ( 'NONE',  ( -0.000000000000000000, -0.000000000000000000, -1.000000000000000000 ) ) ;
#143 = LINE ( 'NONE', #201, #193 ) ;
#144 = CYLINDRICAL_SURFACE ( 'NONE', #122, 1.750000000000000000 ) ;
#145 = PERSON_AND_ORGANIZATION_ROLE ( 'creator' ) ;
#146 = ORIENTED_EDGE ( 'NONE', *, *, #14, .F. ) ;
#147 = DATE_TIME_ROLE ( 'classification_date' ) ;
#148 = EDGE_CURVE ( 'NONE', #126, #49, #33, .T. ) ;
#149 = ORGANIZATION ( 'NEURÈENÝ', 'NEURÈENÝ', '' ) ;
#150 = APPROVAL_ROLE ( '' ) ;
#151 = PERSON_AND_ORGANIZATION_ROLE ( 'classification_officer' ) ;
#152 = LINE ( 'NONE', #253, #28 ) ;
#153 = MANIFOLD_SOLID_BREP ( 'Pøidat vysunutím3', #249 ) ;
#154 = PRODUCT_DEFINITION ( 'NEZNÁMÝ', '', #228, #18 ) ;
#155 = CC_DESIGN_APPROVAL ( #134, ( #240 ) ) ;
#156 = DIRECTION ( 'NONE',  ( -0.000000000000000000, -0.000000000000000000, -1.000000000000000000 ) ) ;
#157 = DIRECTION ( 'NONE',  ( 0.000000000000000000, 0.000000000000000000, 1.000000000000000000 ) ) ;
#158 = PRODUCT ( 'a694', 'a694', '', ( #248 ) ) ;
#159 = CIRCLE ( 'NONE', #53, 3.500000000000000444 ) ;
#160 = CARTESIAN_POINT ( 'NONE',  ( -1.750000000000000000, 0.000000000000000000, 125.0000000000000000 ) ) ;
#161 = EDGE_LOOP ( 'NONE', ( #6, #242, #225, #146 ) ) ;
#162 = CARTESIAN_POINT ( 'NONE',  ( 0.000000000000000000, 0.000000000000000000, 3.000000000000000000 ) ) ;
#163 = EDGE_LOOP ( 'NONE', ( #131, #221 ) ) ;
#164 = CARTESIAN_POINT ( 'NONE',  ( 0.000000000000000000, 0.000000000000000000, 3.000000000000000000 ) ) ;
#165 = LOCAL_TIME ( 13, 42, 55.00000000000000000, #244 ) ;
#166 = DIRECTION ( 'NONE',  ( 1.000000000000000000, 0.000000000000000000, 0.000000000000000000 ) ) ;
#167 = EDGE_LOOP ( 'NONE', ( #11, #29, #82, #208 ) ) ;
#168 = SECURITY_CLASSIFICATION_LEVEL ( 'unclassified' ) ;
#169 = APPROVAL_DATE_TIME ( #52, #183 ) ;
#170 = AXIS2_PLACEMENT_3D ( 'NONE', #1, #243, #100 ) ;
#171 = PERSON_AND_ORGANIZATION_ROLE ( 'design_supplier' ) ;
#172 = DIRECTION ( 'NONE',  ( 1.000000000000000000, 0.000000000000000000, 0.000000000000000000 ) ) ;
#173 = VERTEX_POINT ( 'NONE', #238 ) ;
#174 = CC_DESIGN_DATE_AND_TIME_ASSIGNMENT ( #133, #19, ( #154 ) ) ;
#175 = CARTESIAN_POINT ( 'NONE',  ( 0.000000000000000000, 0.000000000000000000, 125.0000000000000000 ) ) ;
#176 = CIRCLE ( 'NONE', #130, 3.500000000000000444 ) ;
#177 = CARTESIAN_POINT ( 'NONE',  ( 0.000000000000000000, 0.000000000000000000, 3.000000000000000000 ) ) ;
#178 = CARTESIAN_POINT ( 'NONE',  ( 3.500000000000000444, 4.286263797015737088E-16, 0.000000000000000000 ) ) ;
#179 = CC_DESIGN_PERSON_AND_ORGANIZATION_ASSIGNMENT ( #229, #129, ( #154 ) ) ;
#180 = EDGE_CURVE ( 'NONE', #74, #189, #159, .T. ) ;
#181 = DIRECTION ( 'NONE',  ( -0.000000000000000000, -0.000000000000000000, -1.000000000000000000 ) ) ;
#182 = AXIS2_PLACEMENT_3D ( 'NONE', #175, #59, #81 ) ;
#183 = APPROVAL ( #252, 'NEURÈENÝ' ) ;
#184 = DIRECTION ( 'NONE',  ( -1.000000000000000000, 0.000000000000000000, 0.000000000000000000 ) ) ;
#185 = FACE_OUTER_BOUND ( 'NONE', #72, .T. ) ;
#186 = DIRECTION ( 'NONE',  ( 1.000000000000000000, 0.000000000000000000, 0.000000000000000000 ) ) ;
#187 = PERSON_AND_ORGANIZATION ( #254, #149 ) ;
#188 = LOCAL_TIME ( 13, 42, 55.00000000000000000, #50 ) ;
#189 = VERTEX_POINT ( 'NONE', #178 ) ;
#190 = CC_DESIGN_PERSON_AND_ORGANIZATION_ASSIGNMENT ( #76, #151, ( #240 ) ) ;
#191 = ORIENTED_EDGE ( 'NONE', *, *, #14, .T. ) ;
#192 = DIRECTION ( 'NONE',  ( -1.000000000000000000, 0.000000000000000000, 0.000000000000000000 ) ) ;
#193 = VECTOR ( 'NONE', #142, 1000.000000000000000 ) ;
#194 = EDGE_CURVE ( 'NONE', #34, #255, #25, .T. ) ;
#195 =( GEOMETRIC_REPRESENTATION_CONTEXT ( 3 ) GLOBAL_UNCERTAINTY_ASSIGNED_CONTEXT ( ( #46 ) ) GLOBAL_UNIT_ASSIGNED_CONTEXT ( ( #109, #39, #35 ) ) REPRESENTATION_CONTEXT ( 'NONE', 'WORKASPACE' ) );
#196 = DIRECTION ( 'NONE',  ( 1.000000000000000000, 0.000000000000000000, 0.000000000000000000 ) ) ;
#197 = AXIS2_PLACEMENT_3D ( 'NONE', #118, #44, #45 ) ;
#198 = DIRECTION ( 'NONE',  ( 0.000000000000000000, 0.000000000000000000, 1.000000000000000000 ) ) ;
#199 = FACE_OUTER_BOUND ( 'NONE', #161, .T. ) ;
#200 = APPROVAL_PERSON_ORGANIZATION ( #227, #183, #150 ) ;
#201 = CARTESIAN_POINT ( 'NONE',  ( 1.750000000000000000, 2.143131898507867804E-16, 125.0000000000000000 ) ) ;
#202 = APPLICATION_PROTOCOL_DEFINITION ( 'international standard', 'config_control_design', 1994, #58 ) ;
#203 = EDGE_LOOP ( 'NONE', ( #206, #207 ) ) ;
#204 = CC_DESIGN_PERSON_AND_ORGANIZATION_ASSIGNMENT ( #13, #113, ( #158 ) ) ;
#205 = PERSON_AND_ORGANIZATION ( #254, #149 ) ;
#206 = ORIENTED_EDGE ( 'NONE', *, *, #36, .T. ) ;
#207 = ORIENTED_EDGE ( 'NONE', *, *, #194, .T. ) ;
#208 = ORIENTED_EDGE ( 'NONE', *, *, #148, .T. ) ;
#209 = COORDINATED_UNIVERSAL_TIME_OFFSET ( 1, 0, .AHEAD. ) ;
#210 = PERSON_AND_ORGANIZATION ( #254, #149 ) ;
#211 = AXIS2_PLACEMENT_3D ( 'NONE', #123, #198, #124 ) ;
#212 = ORIENTED_EDGE ( 'NONE', *, *, #71, .F. ) ;
#213 = CARTESIAN_POINT ( 'NONE',  ( 1.750000000000000000, 2.143131898507867804E-16, 3.000000000000000000 ) ) ;
#214 = VECTOR ( 'NONE', #116, 1000.000000000000000 ) ;
#215 = DIRECTION ( 'NONE',  ( 0.000000000000000000, 0.000000000000000000, 1.000000000000000000 ) ) ;
#216 = CARTESIAN_POINT ( 'NONE',  ( 0.000000000000000000, 0.000000000000000000, 0.000000000000000000 ) ) ;
#217 = CARTESIAN_POINT ( 'NONE',  ( 0.000000000000000000, 0.000000000000000000, 3.000000000000000000 ) ) ;
#218 = CARTESIAN_POINT ( 'NONE',  ( -1.750000000000000000, 0.000000000000000000, 125.0000000000000000 ) ) ;
#219 = ADVANCED_FACE ( 'NONE', ( #22 ), #83, .T. ) ;
#220 = AXIS2_PLACEMENT_3D ( 'NONE', #77, #17, #172 ) ;
#221 = ORIENTED_EDGE ( 'NONE', *, *, #139, .F. ) ;
#222 = DIRECTION ( 'NONE',  ( 0.000000000000000000, 0.000000000000000000, 1.000000000000000000 ) ) ;
#223 = LOCAL_TIME ( 13, 42, 55.00000000000000000, #56 ) ;
#224 = APPROVAL_ROLE ( '' ) ;
#225 = ORIENTED_EDGE ( 'NONE', *, *, #139, .T. ) ;
#226 = APPROVAL_DATE_TIME ( #70, #134 ) ;
#227 = PERSON_AND_ORGANIZATION ( #254, #149 ) ;
#228 = PRODUCT_DEFINITION_FORMATION_WITH_SPECIFIED_SOURCE ( 'LIBOVOLNÝ', '', #158, .NOT_KNOWN. ) ;
#229 = PERSON_AND_ORGANIZATION ( #254, #149 ) ;
#230 = CYLINDRICAL_SURFACE ( 'NONE', #140, 1.750000000000000000 ) ;
#231 = DIRECTION ( 'NONE',  ( 0.000000000000000000, 0.000000000000000000, 1.000000000000000000 ) ) ;
#232 = ADVANCED_FACE ( 'NONE', ( #125 ), #144, .T. ) ;
#233 = CARTESIAN_POINT ( 'NONE',  ( 1.750000000000000000, 2.143131898507867804E-16, 125.0000000000000000 ) ) ;
#234 = AXIS2_PLACEMENT_3D ( 'NONE', #217, #105, #184 ) ;
#235 = DIRECTION ( 'NONE',  ( -1.000000000000000000, 0.000000000000000000, 0.000000000000000000 ) ) ;
#236 = CIRCLE ( 'NONE', #182, 1.750000000000000000 ) ;
#237 = DIRECTION ( 'NONE',  ( 1.000000000000000000, 0.000000000000000000, -0.000000000000000000 ) ) ;
#238 = CARTESIAN_POINT ( 'NONE',  ( -3.500000000000000444, 0.000000000000000000, 3.000000000000000000 ) ) ;
#239 = EDGE_CURVE ( 'NONE', #34, #49, #143, .T. ) ;
#240 = SECURITY_CLASSIFICATION ( '', '', #168 ) ;
#241 = DIRECTION ( 'NONE',  ( 0.000000000000000000, 0.000000000000000000, 1.000000000000000000 ) ) ;
#242 = ORIENTED_EDGE ( 'NONE', *, *, #3, .T. ) ;
#243 = DIRECTION ( 'NONE',  ( 0.000000000000000000, 0.000000000000000000, 1.000000000000000000 ) ) ;
#244 = COORDINATED_UNIVERSAL_TIME_OFFSET ( 1, 0, .AHEAD. ) ;
#245 = CC_DESIGN_PERSON_AND_ORGANIZATION_ASSIGNMENT ( #97, #145, ( #228 ) ) ;
#246 = ORIENTED_EDGE ( 'NONE', *, *, #180, .T. ) ;
#247 = DATE_AND_TIME ( #37, #47 ) ;
#248 = MECHANICAL_CONTEXT ( 'NONE', #58, 'mechanical' ) ;
#249 = CLOSED_SHELL ( 'NONE', ( #4, #79, #61, #66, #114, #232, #219 ) ) ;
#250 = APPROVAL_PERSON_ORGANIZATION ( #210, #134, #224 ) ;
#251 = LINE ( 'NONE', #40, #214 ) ;
#252 = APPROVAL_STATUS ( 'not_yet_approved' ) ;
#253 = CARTESIAN_POINT ( 'NONE',  ( -3.500000000000000444, 0.000000000000000000, 3.000000000000000000 ) ) ;
#254 = PERSON ( 'NEURÈENÝ', 'NEURÈENÝ', 'NEURÈENÝ', ('NEURÈENÝ'), ('NEURÈENÝ'), ('NEURÈENÝ') ) ;
#255 = VERTEX_POINT ( 'NONE', #218 ) ;
ENDSEC;
END-ISO-10303-21;
