ISO-10303-21;
HEADER;
FILE_DESCRIPTION (( 'STEP AP203' ),
    '1' );
FILE_NAME ('cba8.STEP',
    '2022-07-07T09:46:29',
    ( '' ),
    ( '' ),
    'SwSTEP 2.0',
    'SolidWorks 2019',
    '' );
FILE_SCHEMA (( 'CONFIG_CONTROL_DESIGN' ));
ENDSEC;

DATA;
#1 = EDGE_LOOP ( 'NONE', ( #246, #173, #285, #139 ) ) ;
#2 = VERTEX_POINT ( 'NONE', #152 ) ;
#3 = LOCAL_TIME ( 11, 46, 29.00000000000000000, #15 ) ;
#4 = CARTESIAN_POINT ( 'NONE',  ( -9.000000000000000000, 0.000000000000000000, 7.000000000000000000 ) ) ;
#5 = LINE ( 'NONE', #291, #201 ) ;
#6 = CC_DESIGN_PERSON_AND_ORGANIZATION_ASSIGNMENT ( #292, #181, ( #155 ) ) ;
#7 = CARTESIAN_POINT ( 'NONE',  ( 0.000000000000000000, 0.000000000000000000, 407.0000000000000000 ) ) ;
#8 = ADVANCED_BREP_SHAPE_REPRESENTATION ( 'cba8', ( #296, #277 ), #35 ) ;
#9 = APPLICATION_CONTEXT ( 'configuration controlled 3d designs of mechanical parts and assemblies' ) ;
#10 = CARTESIAN_POINT ( 'NONE',  ( 0.000000000000000000, 0.000000000000000000, 0.000000000000000000 ) ) ;
#11 = CARTESIAN_POINT ( 'NONE',  ( 0.000000000000000000, 0.000000000000000000, 0.000000000000000000 ) ) ;
#12 = APPROVAL_DATE_TIME ( #230, #176 ) ;
#13 = DIRECTION ( 'NONE',  ( -0.000000000000000000, -0.000000000000000000, -1.000000000000000000 ) ) ;
#14 = ADVANCED_FACE ( 'NONE', ( #52 ), #247, .F. ) ;
#15 = COORDINATED_UNIVERSAL_TIME_OFFSET ( 1, 0, .AHEAD. ) ;
#16 = CYLINDRICAL_SURFACE ( 'NONE', #99, 9.000000000000000000 ) ;
#17 = VECTOR ( 'NONE', #191, 1000.000000000000000 ) ;
#18 = EDGE_LOOP ( 'NONE', ( #269, #48 ) ) ;
#19 = CYLINDRICAL_SURFACE ( 'NONE', #137, 9.000000000000000000 ) ;
#20 = CYLINDRICAL_SURFACE ( 'NONE', #219, 6.000000000000000888 ) ;
#21 = DIRECTION ( 'NONE',  ( 1.000000000000000000, 0.000000000000000000, 0.000000000000000000 ) ) ;
#22 = CIRCLE ( 'NONE', #226, 6.000000000000000888 ) ;
#23 = DIRECTION ( 'NONE',  ( 1.000000000000000000, 0.000000000000000000, 0.000000000000000000 ) ) ;
#24 = EDGE_CURVE ( 'NONE', #184, #2, #54, .T. ) ;
#25 = DIRECTION ( 'NONE',  ( -1.000000000000000000, 1.224646799147353454E-16, 0.000000000000000000 ) ) ;
#26 = CARTESIAN_POINT ( 'NONE',  ( 0.000000000000000000, 0.000000000000000000, 7.000000000000000000 ) ) ;
#27 = APPROVAL_DATE_TIME ( #102, #43 ) ;
#28 = VECTOR ( 'NONE', #186, 1000.000000000000000 ) ;
#29 = CC_DESIGN_APPROVAL ( #43, ( #124 ) ) ;
#30 = ORIENTED_EDGE ( 'NONE', *, *, #270, .T. ) ;
#31 = ADVANCED_FACE ( 'NONE', ( #70 ), #40, .F. ) ;
#32 = VERTEX_POINT ( 'NONE', #297 ) ;
#33 = APPROVAL_ROLE ( '' ) ;
#34 = PERSON_AND_ORGANIZATION_ROLE ( 'design_owner' ) ;
#35 =( GEOMETRIC_REPRESENTATION_CONTEXT ( 3 ) GLOBAL_UNCERTAINTY_ASSIGNED_CONTEXT ( ( #177 ) ) GLOBAL_UNIT_ASSIGNED_CONTEXT ( ( #105, #278, #160 ) ) REPRESENTATION_CONTEXT ( 'NONE', 'WORKASPACE' ) );
#36 = SECURITY_CLASSIFICATION_LEVEL ( 'unclassified' ) ;
#37 = FACE_OUTER_BOUND ( 'NONE', #262, .T. ) ;
#38 = AXIS2_PLACEMENT_3D ( 'NONE', #227, #178, #100 ) ;
#39 = ORIENTED_EDGE ( 'NONE', *, *, #270, .F. ) ;
#40 = TOROIDAL_SURFACE ( 'NONE', #221, 6.200000000000001066, 0.2000000000000000111 ) ;
#41 = DIRECTION ( 'NONE',  ( -1.000000000000000000, 0.000000000000000000, 0.000000000000000000 ) ) ;
#42 = ORIENTED_EDGE ( 'NONE', *, *, #101, .F. ) ;
#43 = APPROVAL ( #161, 'NEURÈENÝ' ) ;
#44 = DIRECTION ( 'NONE',  ( 0.000000000000000000, 0.000000000000000000, 1.000000000000000000 ) ) ;
#45 = ORIENTED_EDGE ( 'NONE', *, *, #46, .T. ) ;
#46 = EDGE_CURVE ( 'NONE', #32, #119, #73, .T. ) ;
#47 = CARTESIAN_POINT ( 'NONE',  ( 9.000000000000000000, 1.102182119232617714E-15, 7.000000000000000000 ) ) ;
#48 = ORIENTED_EDGE ( 'NONE', *, *, #281, .F. ) ;
#49 = DIRECTION ( 'NONE',  ( 1.000000000000000000, 0.000000000000000000, 0.000000000000000000 ) ) ;
#50 = AXIS2_PLACEMENT_3D ( 'NONE', #239, #290, #216 ) ;
#51 = CC_DESIGN_SECURITY_CLASSIFICATION ( #124, ( #140 ) ) ;
#52 = FACE_OUTER_BOUND ( 'NONE', #18, .T. ) ;
#53 = ORIENTED_EDGE ( 'NONE', *, *, #302, .T. ) ;
#54 = CIRCLE ( 'NONE', #233, 0.1999999999999996503 ) ;
#55 = ADVANCED_FACE ( 'NONE', ( #72 ), #71, .T. ) ;
#56 = DESIGN_CONTEXT ( 'detailed design', #9, 'design' ) ;
#57 = CC_DESIGN_PERSON_AND_ORGANIZATION_ASSIGNMENT ( #299, #34, ( #179 ) ) ;
#58 = PLANE ( 'NONE',  #38 ) ;
#59 = PERSON_AND_ORGANIZATION_ROLE ( 'creator' ) ;
#60 = CARTESIAN_POINT ( 'NONE',  ( 0.000000000000000000, 0.000000000000000000, 407.0000000000000000 ) ) ;
#61 = ORIENTED_EDGE ( 'NONE', *, *, #66, .F. ) ;
#62 = DATE_TIME_ROLE ( 'classification_date' ) ;
#63 = DIRECTION ( 'NONE',  ( -1.000000000000000000, 0.000000000000000000, 0.000000000000000000 ) ) ;
#64 = CARTESIAN_POINT ( 'NONE',  ( 6.000000000000000888, 7.347880794884120722E-16, 407.0000000000000000 ) ) ;
#65 = CARTESIAN_POINT ( 'NONE',  ( 0.000000000000000000, 0.000000000000000000, 0.000000000000000000 ) ) ;
#66 = EDGE_CURVE ( 'NONE', #212, #113, #198, .T. ) ;
#67 = DIRECTION ( 'NONE',  ( 0.000000000000000000, 0.000000000000000000, 1.000000000000000000 ) ) ;
#68 = AXIS2_PLACEMENT_3D ( 'NONE', #65, #44, #23 ) ;
#69 = LOCAL_TIME ( 11, 46, 29.00000000000000000, #132 ) ;
#70 = FACE_OUTER_BOUND ( 'NONE', #196, .T. ) ;
#71 = CYLINDRICAL_SURFACE ( 'NONE', #306, 6.000000000000000888 ) ;
#72 = FACE_OUTER_BOUND ( 'NONE', #1, .T. ) ;
#73 = CIRCLE ( 'NONE', #126, 6.000000000000000888 ) ;
#74 = CIRCLE ( 'NONE', #245, 6.000000000000000888 ) ;
#75 = ORIENTED_EDGE ( 'NONE', *, *, #159, .F. ) ;
#76 = EDGE_CURVE ( 'NONE', #113, #147, #5, .T. ) ;
#77 = DIRECTION ( 'NONE',  ( 0.000000000000000000, 0.000000000000000000, 1.000000000000000000 ) ) ;
#78 = ADVANCED_FACE ( 'NONE', ( #248 ), #118, .T. ) ;
#79 = APPROVAL_ROLE ( '' ) ;
#80 = CALENDAR_DATE ( 2022, 7, 7 ) ;
#81 = CARTESIAN_POINT ( 'NONE',  ( 9.000000000000000000, 1.102182119232617714E-15, 0.000000000000000000 ) ) ;
#82 = EDGE_LOOP ( 'NONE', ( #283, #265, #93, #162 ) ) ;
#83 = DATE_AND_TIME ( #189, #3 ) ;
#84 = ORIENTED_EDGE ( 'NONE', *, *, #281, .T. ) ;
#85 = VERTEX_POINT ( 'NONE', #215 ) ;
#86 = LINE ( 'NONE', #300, #28 ) ;
#87 = VECTOR ( 'NONE', #115, 1000.000000000000000 ) ;
#88 = ORGANIZATION ( 'NEURÈENÝ', 'NEURÈENÝ', '' ) ;
#89 = CC_DESIGN_DATE_AND_TIME_ASSIGNMENT ( #83, #62, ( #124 ) ) ;
#90 = APPROVAL_STATUS ( 'not_yet_approved' ) ;
#91 = EDGE_LOOP ( 'NONE', ( #293, #30 ) ) ;
#92 = CLOSED_SHELL ( 'NONE', ( #31, #55, #210, #195, #130, #14, #200, #78, #235 ) ) ;
#93 = ORIENTED_EDGE ( 'NONE', *, *, #258, .T. ) ;
#94 = LOCAL_TIME ( 11, 46, 29.00000000000000000, #180 ) ;
#95 = EDGE_LOOP ( 'NONE', ( #237, #53 ) ) ;
#96 = CC_DESIGN_PERSON_AND_ORGANIZATION_ASSIGNMENT ( #241, #232, ( #140 ) ) ;
#97 = LINE ( 'NONE', #4, #17 ) ;
#98 = ORIENTED_EDGE ( 'NONE', *, *, #249, .T. ) ;
#99 = AXIS2_PLACEMENT_3D ( 'NONE', #111, #208, #41 ) ;
#100 = DIRECTION ( 'NONE',  ( 1.000000000000000000, 0.000000000000000000, -0.000000000000000000 ) ) ;
#101 = EDGE_CURVE ( 'NONE', #212, #240, #97, .T. ) ;
#102 = DATE_AND_TIME ( #244, #260 ) ;
#103 = DIRECTION ( 'NONE',  ( 1.000000000000000000, 0.000000000000000000, 0.000000000000000000 ) ) ;
#104 = PERSON ( 'NEURÈENÝ', 'NEURÈENÝ', 'NEURÈENÝ', ('NEURÈENÝ'), ('NEURÈENÝ'), ('NEURÈENÝ') ) ;
#105 =( LENGTH_UNIT ( ) NAMED_UNIT ( * ) SI_UNIT ( .MILLI., .METRE. ) );
#106 = PRODUCT_DEFINITION_SHAPE ( 'NONE', 'NONE',  #155 ) ;
#107 = PERSON_AND_ORGANIZATION ( #104, #88 ) ;
#108 = CARTESIAN_POINT ( 'NONE',  ( -9.000000000000000000, 0.000000000000000000, 0.000000000000000000 ) ) ;
#109 = CIRCLE ( 'NONE', #50, 9.000000000000000000 ) ;
#110 = CC_DESIGN_APPROVAL ( #176, ( #140 ) ) ;
#111 = CARTESIAN_POINT ( 'NONE',  ( 0.000000000000000000, 0.000000000000000000, 7.000000000000000000 ) ) ;
#112 = FACE_OUTER_BOUND ( 'NONE', #193, .T. ) ;
#113 = VERTEX_POINT ( 'NONE', #47 ) ;
#114 = EDGE_CURVE ( 'NONE', #85, #184, #74, .T. ) ;
#115 = DIRECTION ( 'NONE',  ( -0.000000000000000000, -0.000000000000000000, -1.000000000000000000 ) ) ;
#116 = AXIS2_PLACEMENT_3D ( 'NONE', #11, #77, #174 ) ;
#117 = PERSON_AND_ORGANIZATION ( #104, #88 ) ;
#118 = PLANE ( 'NONE',  #197 ) ;
#119 = VERTEX_POINT ( 'NONE', #202 ) ;
#120 = DIRECTION ( 'NONE',  ( 0.000000000000000000, 0.000000000000000000, 1.000000000000000000 ) ) ;
#121 = CIRCLE ( 'NONE', #250, 0.1999999999999996503 ) ;
#122 = LOCAL_TIME ( 11, 46, 29.00000000000000000, #253 ) ;
#123 = EDGE_CURVE ( 'NONE', #240, #147, #205, .T. ) ;
#124 = SECURITY_CLASSIFICATION ( '', '', #36 ) ;
#125 = DIRECTION ( 'NONE',  ( 0.000000000000000000, 0.000000000000000000, 1.000000000000000000 ) ) ;
#126 = AXIS2_PLACEMENT_3D ( 'NONE', #243, #171, #199 ) ;
#127 = TOROIDAL_SURFACE ( 'NONE', #267, 6.200000000000001066, 0.2000000000000000111 ) ;
#128 = FACE_BOUND ( 'NONE', #91, .T. ) ;
#129 = FACE_OUTER_BOUND ( 'NONE', #95, .T. ) ;
#130 = ADVANCED_FACE ( 'NONE', ( #128, #129 ), #58, .T. ) ;
#131 = DATE_TIME_ROLE ( 'creation_date' ) ;
#132 = COORDINATED_UNIVERSAL_TIME_OFFSET ( 1, 0, .AHEAD. ) ;
#133 = DIRECTION ( 'NONE',  ( 0.000000000000000000, 0.000000000000000000, 1.000000000000000000 ) ) ;
#134 = DATE_AND_TIME ( #80, #122 ) ;
#135 = DIRECTION ( 'NONE',  ( -0.000000000000000000, -0.000000000000000000, -1.000000000000000000 ) ) ;
#136 = APPROVAL_ROLE ( '' ) ;
#137 = AXIS2_PLACEMENT_3D ( 'NONE', #231, #135, #63 ) ;
#138 = CARTESIAN_POINT ( 'NONE',  ( 0.000000000000000000, 0.000000000000000000, 7.199999999999984190 ) ) ;
#139 = ORIENTED_EDGE ( 'NONE', *, *, #258, .F. ) ;
#140 = PRODUCT_DEFINITION_FORMATION_WITH_SPECIFIED_SOURCE ( 'LIBOVOLNÝ', '', #179, .NOT_KNOWN. ) ;
#141 = CARTESIAN_POINT ( 'NONE',  ( -9.000000000000000000, 0.000000000000000000, 7.000000000000000000 ) ) ;
#142 = ORIENTED_EDGE ( 'NONE', *, *, #123, .T. ) ;
#143 = EDGE_CURVE ( 'NONE', #217, #2, #146, .T. ) ;
#144 = DIRECTION ( 'NONE',  ( -1.000000000000000000, 0.000000000000000000, 0.000000000000000000 ) ) ;
#145 = DIRECTION ( 'NONE',  ( 0.000000000000000000, 0.000000000000000000, -1.000000000000000000 ) ) ;
#146 = CIRCLE ( 'NONE', #157, 6.200000000000001066 ) ;
#147 = VERTEX_POINT ( 'NONE', #81 ) ;
#148 = DIRECTION ( 'NONE',  ( 0.000000000000000000, 0.000000000000000000, 1.000000000000000000 ) ) ;
#149 = CARTESIAN_POINT ( 'NONE',  ( 0.000000000000000000, 0.000000000000000000, 7.199999999999984190 ) ) ;
#150 = CARTESIAN_POINT ( 'NONE',  ( -6.200000000000001066, 7.592810154713590821E-16, 7.199999999999984190 ) ) ;
#151 = AXIS2_PLACEMENT_3D ( 'NONE', #236, #204, #305 ) ;
#152 = CARTESIAN_POINT ( 'NONE',  ( -6.200000000000001066, 7.592810154713590821E-16, 6.999999999999992006 ) ) ;
#153 = CARTESIAN_POINT ( 'NONE',  ( 0.000000000000000000, 0.000000000000000000, 0.000000000000000000 ) ) ;
#154 = APPROVAL_PERSON_ORGANIZATION ( #117, #176, #33 ) ;
#155 = PRODUCT_DEFINITION ( 'NEZNÁMÝ', '', #140, #56 ) ;
#156 = PERSON_AND_ORGANIZATION ( #104, #88 ) ;
#157 = AXIS2_PLACEMENT_3D ( 'NONE', #276, #251, #255 ) ;
#158 = APPLICATION_PROTOCOL_DEFINITION ( 'international standard', 'config_control_design', 1994, #9 ) ;
#159 = EDGE_CURVE ( 'NONE', #184, #85, #22, .T. ) ;
#160 =( NAMED_UNIT ( * ) SI_UNIT ( $, .STERADIAN. ) SOLID_ANGLE_UNIT ( ) );
#161 = APPROVAL_STATUS ( 'not_yet_approved' ) ;
#162 = ORIENTED_EDGE ( 'NONE', *, *, #159, .T. ) ;
#163 = CC_DESIGN_APPROVAL ( #287, ( #155 ) ) ;
#164 = ORIENTED_EDGE ( 'NONE', *, *, #76, .F. ) ;
#165 = CARTESIAN_POINT ( 'NONE',  ( 6.200000000000001066, 0.000000000000000000, 7.199999999999984190 ) ) ;
#166 = CALENDAR_DATE ( 2022, 7, 7 ) ;
#167 = AXIS2_PLACEMENT_3D ( 'NONE', #213, #307, #288 ) ;
#168 = DIRECTION ( 'NONE',  ( 1.000000000000000000, 0.000000000000000000, -0.000000000000000000 ) ) ;
#169 = DIRECTION ( 'NONE',  ( 1.000000000000000000, 0.000000000000000000, 0.000000000000000000 ) ) ;
#170 = DIRECTION ( 'NONE',  ( -0.000000000000000000, -0.000000000000000000, -1.000000000000000000 ) ) ;
#171 = DIRECTION ( 'NONE',  ( 0.000000000000000000, 0.000000000000000000, 1.000000000000000000 ) ) ;
#172 = CC_DESIGN_PERSON_AND_ORGANIZATION_ASSIGNMENT ( #203, #282, ( #124 ) ) ;
#173 = ORIENTED_EDGE ( 'NONE', *, *, #263, .T. ) ;
#174 = DIRECTION ( 'NONE',  ( 1.000000000000000000, 0.000000000000000000, 0.000000000000000000 ) ) ;
#175 = APPROVAL_PERSON_ORGANIZATION ( #156, #287, #79 ) ;
#176 = APPROVAL ( #279, 'NEURÈENÝ' ) ;
#177 = UNCERTAINTY_MEASURE_WITH_UNIT (LENGTH_MEASURE( 1.000000000000000082E-05 ), #105, 'distance_accuracy_value', 'NONE');
#178 = DIRECTION ( 'NONE',  ( 0.000000000000000000, 0.000000000000000000, 1.000000000000000000 ) ) ;
#179 = PRODUCT ( 'cba8', 'cba8', '', ( #229 ) ) ;
#180 = COORDINATED_UNIVERSAL_TIME_OFFSET ( 1, 0, .AHEAD. ) ;
#181 = PERSON_AND_ORGANIZATION_ROLE ( 'creator' ) ;
#182 = ORIENTED_EDGE ( 'NONE', *, *, #294, .T. ) ;
#183 = CARTESIAN_POINT ( 'NONE',  ( 6.200000000000001066, 0.000000000000000000, 6.999999999999992006 ) ) ;
#184 = VERTEX_POINT ( 'NONE', #280 ) ;
#185 = CIRCLE ( 'NONE', #68, 9.000000000000000000 ) ;
#186 = DIRECTION ( 'NONE',  ( -0.000000000000000000, -0.000000000000000000, -1.000000000000000000 ) ) ;
#187 = ORIENTED_EDGE ( 'NONE', *, *, #76, .T. ) ;
#188 = EDGE_LOOP ( 'NONE', ( #164, #61, #274, #142 ) ) ;
#189 = CALENDAR_DATE ( 2022, 7, 7 ) ;
#190 = APPLICATION_CONTEXT ( 'configuration controlled 3d designs of mechanical parts and assemblies' ) ;
#191 = DIRECTION ( 'NONE',  ( -0.000000000000000000, -0.000000000000000000, -1.000000000000000000 ) ) ;
#192 = AXIS2_PLACEMENT_3D ( 'NONE', #153, #125, #222 ) ;
#193 = EDGE_LOOP ( 'NONE', ( #209, #295, #182, #39 ) ) ;
#194 = CARTESIAN_POINT ( 'NONE',  ( 0.000000000000000000, 0.000000000000000000, 7.199999999999984190 ) ) ;
#195 = ADVANCED_FACE ( 'NONE', ( #234 ), #19, .T. ) ;
#196 = EDGE_LOOP ( 'NONE', ( #75, #223, #256, #207 ) ) ;
#197 = AXIS2_PLACEMENT_3D ( 'NONE', #242, #120, #168 ) ;
#198 = CIRCLE ( 'NONE', #272, 9.000000000000000000 ) ;
#199 = DIRECTION ( 'NONE',  ( 1.000000000000000000, 0.000000000000000000, 0.000000000000000000 ) ) ;
#200 = ADVANCED_FACE ( 'NONE', ( #238 ), #20, .T. ) ;
#201 = VECTOR ( 'NONE', #298, 1000.000000000000000 ) ;
#202 = CARTESIAN_POINT ( 'NONE',  ( -6.000000000000000888, 0.000000000000000000, 407.0000000000000000 ) ) ;
#203 = PERSON_AND_ORGANIZATION ( #104, #88 ) ;
#204 = DIRECTION ( 'NONE',  ( 0.000000000000000000, 0.000000000000000000, 1.000000000000000000 ) ) ;
#205 = CIRCLE ( 'NONE', #116, 9.000000000000000000 ) ;
#206 = PERSON_AND_ORGANIZATION ( #104, #88 ) ;
#207 = ORIENTED_EDGE ( 'NONE', *, *, #294, .F. ) ;
#208 = DIRECTION ( 'NONE',  ( -0.000000000000000000, -0.000000000000000000, -1.000000000000000000 ) ) ;
#209 = ORIENTED_EDGE ( 'NONE', *, *, #24, .F. ) ;
#210 = ADVANCED_FACE ( 'NONE', ( #37 ), #16, .T. ) ;
#211 = DIRECTION ( 'NONE',  ( 1.000000000000000000, 0.000000000000000000, 0.000000000000000000 ) ) ;
#212 = VERTEX_POINT ( 'NONE', #141 ) ;
#213 = CARTESIAN_POINT ( 'NONE',  ( 0.000000000000000000, 0.000000000000000000, 7.000000000000000000 ) ) ;
#214 = COORDINATED_UNIVERSAL_TIME_OFFSET ( 1, 0, .AHEAD. ) ;
#215 = CARTESIAN_POINT ( 'NONE',  ( 6.000000000000000888, 7.347880794884120722E-16, 7.199999999999984190 ) ) ;
#216 = DIRECTION ( 'NONE',  ( 1.000000000000000000, 0.000000000000000000, 0.000000000000000000 ) ) ;
#217 = VERTEX_POINT ( 'NONE', #183 ) ;
#218 = SHAPE_DEFINITION_REPRESENTATION ( #106, #8 ) ;
#219 = AXIS2_PLACEMENT_3D ( 'NONE', #60, #13, #144 ) ;
#220 = APPROVAL_PERSON_ORGANIZATION ( #206, #43, #136 ) ;
#221 = AXIS2_PLACEMENT_3D ( 'NONE', #149, #271, #169 ) ;
#222 = DIRECTION ( 'NONE',  ( 1.000000000000000000, 0.000000000000000000, -0.000000000000000000 ) ) ;
#223 = ORIENTED_EDGE ( 'NONE', *, *, #24, .T. ) ;
#224 = CC_DESIGN_DATE_AND_TIME_ASSIGNMENT ( #252, #131, ( #155 ) ) ;
#225 = DIRECTION ( 'NONE',  ( 1.224646799147353207E-16, 1.000000000000000000, -0.000000000000000000 ) ) ;
#226 = AXIS2_PLACEMENT_3D ( 'NONE', #138, #133, #261 ) ;
#227 = CARTESIAN_POINT ( 'NONE',  ( 0.000000000000000000, 0.000000000000000000, 7.000000000000000000 ) ) ;
#228 = PRODUCT_RELATED_PRODUCT_CATEGORY ( 'detail', '', ( #179 ) ) ;
#229 = MECHANICAL_CONTEXT ( 'NONE', #190, 'mechanical' ) ;
#230 = DATE_AND_TIME ( #257, #69 ) ;
#231 = CARTESIAN_POINT ( 'NONE',  ( 0.000000000000000000, 0.000000000000000000, 7.000000000000000000 ) ) ;
#232 = PERSON_AND_ORGANIZATION_ROLE ( 'design_supplier' ) ;
#233 = AXIS2_PLACEMENT_3D ( 'NONE', #150, #225, #25 ) ;
#234 = FACE_OUTER_BOUND ( 'NONE', #188, .T. ) ;
#235 = ADVANCED_FACE ( 'NONE', ( #112 ), #127, .F. ) ;
#236 = CARTESIAN_POINT ( 'NONE',  ( 0.000000000000000000, 0.000000000000000000, 407.0000000000000000 ) ) ;
#237 = ORIENTED_EDGE ( 'NONE', *, *, #66, .T. ) ;
#238 = FACE_OUTER_BOUND ( 'NONE', #82, .T. ) ;
#239 = CARTESIAN_POINT ( 'NONE',  ( 0.000000000000000000, 0.000000000000000000, 7.000000000000000000 ) ) ;
#240 = VERTEX_POINT ( 'NONE', #108 ) ;
#241 = PERSON_AND_ORGANIZATION ( #104, #88 ) ;
#242 = CARTESIAN_POINT ( 'NONE',  ( 0.000000000000000000, 0.000000000000000000, 407.0000000000000000 ) ) ;
#243 = CARTESIAN_POINT ( 'NONE',  ( 0.000000000000000000, 0.000000000000000000, 407.0000000000000000 ) ) ;
#244 = CALENDAR_DATE ( 2022, 7, 7 ) ;
#245 = AXIS2_PLACEMENT_3D ( 'NONE', #194, #148, #103 ) ;
#246 = ORIENTED_EDGE ( 'NONE', *, *, #46, .F. ) ;
#247 = PLANE ( 'NONE',  #192 ) ;
#248 = FACE_OUTER_BOUND ( 'NONE', #273, .T. ) ;
#249 = EDGE_CURVE ( 'NONE', #119, #32, #301, .T. ) ;
#250 = AXIS2_PLACEMENT_3D ( 'NONE', #165, #264, #145 ) ;
#251 = DIRECTION ( 'NONE',  ( -0.000000000000000000, -0.000000000000000000, -1.000000000000000000 ) ) ;
#252 = DATE_AND_TIME ( #166, #94 ) ;
#253 = COORDINATED_UNIVERSAL_TIME_OFFSET ( 1, 0, .AHEAD. ) ;
#254 = APPLICATION_PROTOCOL_DEFINITION ( 'international standard', 'config_control_design', 1994, #190 ) ;
#255 = DIRECTION ( 'NONE',  ( 1.000000000000000000, 0.000000000000000000, 0.000000000000000000 ) ) ;
#256 = ORIENTED_EDGE ( 'NONE', *, *, #143, .F. ) ;
#257 = CALENDAR_DATE ( 2022, 7, 7 ) ;
#258 = EDGE_CURVE ( 'NONE', #119, #184, #86, .T. ) ;
#259 = CIRCLE ( 'NONE', #167, 6.200000000000001066 ) ;
#260 = LOCAL_TIME ( 11, 46, 29.00000000000000000, #214 ) ;
#261 = DIRECTION ( 'NONE',  ( 1.000000000000000000, 0.000000000000000000, 0.000000000000000000 ) ) ;
#262 = EDGE_LOOP ( 'NONE', ( #289, #187, #84, #42 ) ) ;
#263 = EDGE_CURVE ( 'NONE', #32, #85, #286, .T. ) ;
#264 = DIRECTION ( 'NONE',  ( 0.000000000000000000, -1.000000000000000000, 0.000000000000000000 ) ) ;
#265 = ORIENTED_EDGE ( 'NONE', *, *, #249, .F. ) ;
#266 = APPROVAL_DATE_TIME ( #134, #287 ) ;
#267 = AXIS2_PLACEMENT_3D ( 'NONE', #304, #284, #211 ) ;
#268 = DIRECTION ( 'NONE',  ( -1.000000000000000000, 0.000000000000000000, 0.000000000000000000 ) ) ;
#269 = ORIENTED_EDGE ( 'NONE', *, *, #123, .F. ) ;
#270 = EDGE_CURVE ( 'NONE', #2, #217, #259, .T. ) ;
#271 = DIRECTION ( 'NONE',  ( 0.000000000000000000, 0.000000000000000000, 1.000000000000000000 ) ) ;
#272 = AXIS2_PLACEMENT_3D ( 'NONE', #26, #67, #49 ) ;
#273 = EDGE_LOOP ( 'NONE', ( #98, #45 ) ) ;
#274 = ORIENTED_EDGE ( 'NONE', *, *, #101, .T. ) ;
#275 = CC_DESIGN_PERSON_AND_ORGANIZATION_ASSIGNMENT ( #107, #59, ( #140 ) ) ;
#276 = CARTESIAN_POINT ( 'NONE',  ( 0.000000000000000000, 0.000000000000000000, 7.000000000000000000 ) ) ;
#277 = AXIS2_PLACEMENT_3D ( 'NONE', #10, #303, #21 ) ;
#278 =( NAMED_UNIT ( * ) PLANE_ANGLE_UNIT ( ) SI_UNIT ( $, .RADIAN. ) );
#279 = APPROVAL_STATUS ( 'not_yet_approved' ) ;
#280 = CARTESIAN_POINT ( 'NONE',  ( -6.000000000000000888, 0.000000000000000000, 7.199999999999984190 ) ) ;
#281 = EDGE_CURVE ( 'NONE', #147, #240, #185, .T. ) ;
#282 = PERSON_AND_ORGANIZATION_ROLE ( 'classification_officer' ) ;
#283 = ORIENTED_EDGE ( 'NONE', *, *, #263, .F. ) ;
#284 = DIRECTION ( 'NONE',  ( 0.000000000000000000, 0.000000000000000000, 1.000000000000000000 ) ) ;
#285 = ORIENTED_EDGE ( 'NONE', *, *, #114, .T. ) ;
#286 = LINE ( 'NONE', #64, #87 ) ;
#287 = APPROVAL ( #90, 'NEURÈENÝ' ) ;
#288 = DIRECTION ( 'NONE',  ( 1.000000000000000000, 0.000000000000000000, 0.000000000000000000 ) ) ;
#289 = ORIENTED_EDGE ( 'NONE', *, *, #302, .F. ) ;
#290 = DIRECTION ( 'NONE',  ( 0.000000000000000000, 0.000000000000000000, 1.000000000000000000 ) ) ;
#291 = CARTESIAN_POINT ( 'NONE',  ( 9.000000000000000000, 1.102182119232617714E-15, 7.000000000000000000 ) ) ;
#292 = PERSON_AND_ORGANIZATION ( #104, #88 ) ;
#293 = ORIENTED_EDGE ( 'NONE', *, *, #143, .T. ) ;
#294 = EDGE_CURVE ( 'NONE', #85, #217, #121, .T. ) ;
#295 = ORIENTED_EDGE ( 'NONE', *, *, #114, .F. ) ;
#296 = MANIFOLD_SOLID_BREP ( 'Zaoblit1', #92 ) ;
#297 = CARTESIAN_POINT ( 'NONE',  ( 6.000000000000000888, 7.347880794884120722E-16, 407.0000000000000000 ) ) ;
#298 = DIRECTION ( 'NONE',  ( -0.000000000000000000, -0.000000000000000000, -1.000000000000000000 ) ) ;
#299 = PERSON_AND_ORGANIZATION ( #104, #88 ) ;
#300 = CARTESIAN_POINT ( 'NONE',  ( -6.000000000000000888, 0.000000000000000000, 407.0000000000000000 ) ) ;
#301 = CIRCLE ( 'NONE', #151, 6.000000000000000888 ) ;
#302 = EDGE_CURVE ( 'NONE', #113, #212, #109, .T. ) ;
#303 = DIRECTION ( 'NONE',  ( 0.000000000000000000, 0.000000000000000000, 1.000000000000000000 ) ) ;
#304 = CARTESIAN_POINT ( 'NONE',  ( 0.000000000000000000, 0.000000000000000000, 7.199999999999984190 ) ) ;
#305 = DIRECTION ( 'NONE',  ( 1.000000000000000000, 0.000000000000000000, 0.000000000000000000 ) ) ;
#306 = AXIS2_PLACEMENT_3D ( 'NONE', #7, #170, #268 ) ;
#307 = DIRECTION ( 'NONE',  ( -0.000000000000000000, -0.000000000000000000, -1.000000000000000000 ) ) ;
ENDSEC;
END-ISO-10303-21;
