ISO-10303-21;
HEADER;
FILE_DESCRIPTION (( 'STEP AP203' ),
    '1' );
FILE_NAME ('3b6f.STEP',
    '2022-07-07T10:02:31',
    ( '' ),
    ( '' ),
    'SwSTEP 2.0',
    'SolidWorks 2019',
    '' );
FILE_SCHEMA (( 'CONFIG_CONTROL_DESIGN' ));
ENDSEC;

DATA;
#1 = CIRCLE ( 'NONE', #96, 4.000000000000000000 ) ;
#2 = LINE ( 'NONE', #285, #208 ) ;
#3 = SECURITY_CLASSIFICATION ( '', '', #173 ) ;
#4 = ADVANCED_BREP_SHAPE_REPRESENTATION ( '3b6f', ( #36, #184 ), #67 ) ;
#5 = CARTESIAN_POINT ( 'NONE',  ( 0.000000000000000000, 0.000000000000000000, 0.000000000000000000 ) ) ;
#6 = CARTESIAN_POINT ( 'NONE',  ( 0.000000000000000000, 0.000000000000000000, 5.000000000000000000 ) ) ;
#7 = DIRECTION ( 'NONE',  ( -0.000000000000000000, -0.000000000000000000, -1.000000000000000000 ) ) ;
#8 = COORDINATED_UNIVERSAL_TIME_OFFSET ( 1, 0, .AHEAD. ) ;
#9 = EDGE_LOOP ( 'NONE', ( #16, #66, #41, #81 ) ) ;
#10 = APPROVAL_STATUS ( 'not_yet_approved' ) ;
#11 = ADVANCED_FACE ( 'NONE', ( #188 ), #90, .T. ) ;
#12 = PERSON_AND_ORGANIZATION ( #76, #73 ) ;
#13 = CALENDAR_DATE ( 2022, 7, 7 ) ;
#14 = ORIENTED_EDGE ( 'NONE', *, *, #302, .F. ) ;
#15 = MECHANICAL_CONTEXT ( 'NONE', #178, 'mechanical' ) ;
#16 = ORIENTED_EDGE ( 'NONE', *, *, #145, .F. ) ;
#17 = AXIS2_PLACEMENT_3D ( 'NONE', #282, #307, #27 ) ;
#18 = PRODUCT_DEFINITION ( 'NEZNÁMÝ', '', #24, #147 ) ;
#19 = PLANE ( 'NONE',  #136 ) ;
#20 = CARTESIAN_POINT ( 'NONE',  ( -7.000000000000000000, 0.000000000000000000, 0.000000000000000000 ) ) ;
#21 = FACE_OUTER_BOUND ( 'NONE', #209, .T. ) ;
#22 = VECTOR ( 'NONE', #259, 1000.000000000000000 ) ;
#23 = DIRECTION ( 'NONE',  ( -1.000000000000000000, 1.224646799147353454E-16, 0.000000000000000000 ) ) ;
#24 = PRODUCT_DEFINITION_FORMATION_WITH_SPECIFIED_SOURCE ( 'LIBOVOLNÝ', '', #71, .NOT_KNOWN. ) ;
#25 = PRODUCT_DEFINITION_SHAPE ( 'NONE', 'NONE',  #18 ) ;
#26 = CARTESIAN_POINT ( 'NONE',  ( 0.000000000000000000, 0.000000000000000000, 5.000000000000000000 ) ) ;
#27 = DIRECTION ( 'NONE',  ( 1.000000000000000000, 0.000000000000000000, 0.000000000000000000 ) ) ;
#28 = AXIS2_PLACEMENT_3D ( 'NONE', #31, #197, #101 ) ;
#29 = DIRECTION ( 'NONE',  ( 1.000000000000000000, 0.000000000000000000, 0.000000000000000000 ) ) ;
#30 = CARTESIAN_POINT ( 'NONE',  ( 4.200000000000000178, 0.000000000000000000, 4.999999999999991118 ) ) ;
#31 = CARTESIAN_POINT ( 'NONE',  ( 0.000000000000000000, 0.000000000000000000, 5.199999999999982414 ) ) ;
#32 = CIRCLE ( 'NONE', #17, 4.200000000000000178 ) ;
#33 = DATE_TIME_ROLE ( 'classification_date' ) ;
#34 = ORIENTED_EDGE ( 'NONE', *, *, #190, .T. ) ;
#35 = ADVANCED_FACE ( 'NONE', ( #47 ), #299, .F. ) ;
#36 = MANIFOLD_SOLID_BREP ( 'Zaoblit1', #123 ) ;
#37 = CALENDAR_DATE ( 2022, 7, 7 ) ;
#38 = PERSON_AND_ORGANIZATION ( #76, #73 ) ;
#39 = ORIENTED_EDGE ( 'NONE', *, *, #174, .T. ) ;
#40 = PERSON_AND_ORGANIZATION ( #76, #73 ) ;
#41 = ORIENTED_EDGE ( 'NONE', *, *, #158, .T. ) ;
#42 = CARTESIAN_POINT ( 'NONE',  ( 0.000000000000000000, 0.000000000000000000, 505.0000000000000000 ) ) ;
#43 = DIRECTION ( 'NONE',  ( 0.000000000000000000, 0.000000000000000000, 1.000000000000000000 ) ) ;
#44 = CIRCLE ( 'NONE', #276, 0.1999999999999996503 ) ;
#45 = DIRECTION ( 'NONE',  ( 1.000000000000000000, 0.000000000000000000, 0.000000000000000000 ) ) ;
#46 = EDGE_CURVE ( 'NONE', #295, #271, #112, .T. ) ;
#47 = FACE_OUTER_BOUND ( 'NONE', #140, .T. ) ;
#48 = DIRECTION ( 'NONE',  ( 0.000000000000000000, 0.000000000000000000, 1.000000000000000000 ) ) ;
#49 = AXIS2_PLACEMENT_3D ( 'NONE', #55, #7, #72 ) ;
#50 = CC_DESIGN_APPROVAL ( #159, ( #3 ) ) ;
#51 = CARTESIAN_POINT ( 'NONE',  ( 0.000000000000000000, 0.000000000000000000, 5.199999999999982414 ) ) ;
#52 = CARTESIAN_POINT ( 'NONE',  ( 4.000000000000000000, 4.898587196589412829E-16, 505.0000000000000000 ) ) ;
#53 = CYLINDRICAL_SURFACE ( 'NONE', #49, 4.000000000000000000 ) ;
#54 = DIRECTION ( 'NONE',  ( 1.000000000000000000, 0.000000000000000000, 0.000000000000000000 ) ) ;
#55 = CARTESIAN_POINT ( 'NONE',  ( 0.000000000000000000, 0.000000000000000000, 505.0000000000000000 ) ) ;
#56 = CIRCLE ( 'NONE', #242, 4.000000000000000000 ) ;
#57 = COORDINATED_UNIVERSAL_TIME_OFFSET ( 1, 0, .AHEAD. ) ;
#58 = ORIENTED_EDGE ( 'NONE', *, *, #255, .T. ) ;
#59 = APPLICATION_PROTOCOL_DEFINITION ( 'international standard', 'config_control_design', 1994, #196 ) ;
#60 = ORIENTED_EDGE ( 'NONE', *, *, #111, .T. ) ;
#61 = AXIS2_PLACEMENT_3D ( 'NONE', #261, #171, #220 ) ;
#62 = ORIENTED_EDGE ( 'NONE', *, *, #265, .T. ) ;
#63 = CC_DESIGN_APPROVAL ( #69, ( #24 ) ) ;
#64 = ORIENTED_EDGE ( 'NONE', *, *, #145, .T. ) ;
#65 = DIRECTION ( 'NONE',  ( 0.000000000000000000, 0.000000000000000000, 1.000000000000000000 ) ) ;
#66 = ORIENTED_EDGE ( 'NONE', *, *, #239, .F. ) ;
#67 =( GEOMETRIC_REPRESENTATION_CONTEXT ( 3 ) GLOBAL_UNCERTAINTY_ASSIGNED_CONTEXT ( ( #170 ) ) GLOBAL_UNIT_ASSIGNED_CONTEXT ( ( #78, #149, #206 ) ) REPRESENTATION_CONTEXT ( 'NONE', 'WORKASPACE' ) );
#68 = DIRECTION ( 'NONE',  ( 1.000000000000000000, 0.000000000000000000, 0.000000000000000000 ) ) ;
#69 = APPROVAL ( #246, 'NEURÈENÝ' ) ;
#70 = CARTESIAN_POINT ( 'NONE',  ( 0.000000000000000000, 0.000000000000000000, 5.199999999999982414 ) ) ;
#71 = PRODUCT ( '3b6f', '3b6f', '', ( #15 ) ) ;
#72 = DIRECTION ( 'NONE',  ( -1.000000000000000000, 0.000000000000000000, 0.000000000000000000 ) ) ;
#73 = ORGANIZATION ( 'NEURÈENÝ', 'NEURÈENÝ', '' ) ;
#74 = DIRECTION ( 'NONE',  ( -0.000000000000000000, -0.000000000000000000, -1.000000000000000000 ) ) ;
#75 = CYLINDRICAL_SURFACE ( 'NONE', #61, 7.000000000000000000 ) ;
#76 = PERSON ( 'NEURÈENÝ', 'NEURÈENÝ', 'NEURÈENÝ', ('NEURÈENÝ'), ('NEURÈENÝ'), ('NEURÈENÝ') ) ;
#77 = VECTOR ( 'NONE', #146, 1000.000000000000000 ) ;
#78 =( LENGTH_UNIT ( ) NAMED_UNIT ( * ) SI_UNIT ( .MILLI., .METRE. ) );
#79 = PERSON_AND_ORGANIZATION_ROLE ( 'design_supplier' ) ;
#80 = DATE_AND_TIME ( #227, #288 ) ;
#81 = ORIENTED_EDGE ( 'NONE', *, *, #222, .F. ) ;
#82 = AXIS2_PLACEMENT_3D ( 'NONE', #117, #217, #284 ) ;
#83 = ORIENTED_EDGE ( 'NONE', *, *, #158, .F. ) ;
#84 = COORDINATED_UNIVERSAL_TIME_OFFSET ( 1, 0, .AHEAD. ) ;
#85 = VERTEX_POINT ( 'NONE', #231 ) ;
#86 = APPROVAL_STATUS ( 'not_yet_approved' ) ;
#87 = AXIS2_PLACEMENT_3D ( 'NONE', #240, #169, #286 ) ;
#88 = TOROIDAL_SURFACE ( 'NONE', #235, 4.200000000000000178, 0.2000000000000000111 ) ;
#89 = ORIENTED_EDGE ( 'NONE', *, *, #46, .F. ) ;
#90 = CYLINDRICAL_SURFACE ( 'NONE', #250, 4.000000000000000000 ) ;
#91 = CARTESIAN_POINT ( 'NONE',  ( -7.000000000000000000, 0.000000000000000000, 5.000000000000000000 ) ) ;
#92 = CARTESIAN_POINT ( 'NONE',  ( 4.000000000000000000, 4.898587196589412829E-16, 505.0000000000000000 ) ) ;
#93 = DIRECTION ( 'NONE',  ( -0.000000000000000000, -0.000000000000000000, -1.000000000000000000 ) ) ;
#94 = ORIENTED_EDGE ( 'NONE', *, *, #239, .T. ) ;
#95 = DIRECTION ( 'NONE',  ( 1.000000000000000000, 0.000000000000000000, -0.000000000000000000 ) ) ;
#96 = AXIS2_PLACEMENT_3D ( 'NONE', #306, #48, #68 ) ;
#97 = CARTESIAN_POINT ( 'NONE',  ( 7.000000000000000000, 8.572527594031473190E-16, 0.000000000000000000 ) ) ;
#98 = FACE_OUTER_BOUND ( 'NONE', #9, .T. ) ;
#99 = DIRECTION ( 'NONE',  ( 1.000000000000000000, 0.000000000000000000, 0.000000000000000000 ) ) ;
#100 = CIRCLE ( 'NONE', #142, 7.000000000000000000 ) ;
#101 = DIRECTION ( 'NONE',  ( 1.000000000000000000, 0.000000000000000000, 0.000000000000000000 ) ) ;
#102 = PERSON_AND_ORGANIZATION_ROLE ( 'creator' ) ;
#103 = EDGE_LOOP ( 'NONE', ( #191, #154 ) ) ;
#104 = ADVANCED_FACE ( 'NONE', ( #279 ), #187, .T. ) ;
#105 = PERSON_AND_ORGANIZATION ( #76, #73 ) ;
#106 = VERTEX_POINT ( 'NONE', #91 ) ;
#107 = COORDINATED_UNIVERSAL_TIME_OFFSET ( 1, 0, .AHEAD. ) ;
#108 = EDGE_LOOP ( 'NONE', ( #39, #126 ) ) ;
#109 = CIRCLE ( 'NONE', #212, 7.000000000000000000 ) ;
#110 = ORIENTED_EDGE ( 'NONE', *, *, #174, .F. ) ;
#111 = EDGE_CURVE ( 'NONE', #271, #303, #1, .T. ) ;
#112 = LINE ( 'NONE', #210, #230 ) ;
#113 = CARTESIAN_POINT ( 'NONE',  ( -4.200000000000000178, 5.143516556418882928E-16, 4.999999999999991118 ) ) ;
#114 = VERTEX_POINT ( 'NONE', #92 ) ;
#115 = CIRCLE ( 'NONE', #82, 4.000000000000000000 ) ;
#116 = DIRECTION ( 'NONE',  ( -0.000000000000000000, -0.000000000000000000, -1.000000000000000000 ) ) ;
#117 = CARTESIAN_POINT ( 'NONE',  ( 0.000000000000000000, 0.000000000000000000, 505.0000000000000000 ) ) ;
#118 = FACE_OUTER_BOUND ( 'NONE', #103, .T. ) ;
#119 = AXIS2_PLACEMENT_3D ( 'NONE', #229, #257, #23 ) ;
#120 = PLANE ( 'NONE',  #87 ) ;
#121 = CC_DESIGN_PERSON_AND_ORGANIZATION_ASSIGNMENT ( #176, #102, ( #18 ) ) ;
#122 = DIRECTION ( 'NONE',  ( 0.000000000000000000, 0.000000000000000000, 1.000000000000000000 ) ) ;
#123 = CLOSED_SHELL ( 'NONE', ( #35, #181, #278, #104, #186, #245, #11, #132, #294 ) ) ;
#124 = DIRECTION ( 'NONE',  ( 0.000000000000000000, 0.000000000000000000, 1.000000000000000000 ) ) ;
#125 = AXIS2_PLACEMENT_3D ( 'NONE', #244, #264, #54 ) ;
#126 = ORIENTED_EDGE ( 'NONE', *, *, #302, .T. ) ;
#127 = EDGE_CURVE ( 'NONE', #106, #131, #281, .T. ) ;
#128 = PERSON_AND_ORGANIZATION ( #76, #73 ) ;
#129 = CIRCLE ( 'NONE', #119, 0.1999999999999996503 ) ;
#130 = CALENDAR_DATE ( 2022, 7, 7 ) ;
#131 = VERTEX_POINT ( 'NONE', #20 ) ;
#132 = ADVANCED_FACE ( 'NONE', ( #21 ), #19, .T. ) ;
#133 = DIRECTION ( 'NONE',  ( 0.000000000000000000, 0.000000000000000000, 1.000000000000000000 ) ) ;
#134 = ORIENTED_EDGE ( 'NONE', *, *, #111, .F. ) ;
#135 = DIRECTION ( 'NONE',  ( -1.000000000000000000, 0.000000000000000000, 0.000000000000000000 ) ) ;
#136 = AXIS2_PLACEMENT_3D ( 'NONE', #42, #164, #236 ) ;
#137 = DIRECTION ( 'NONE',  ( 1.000000000000000000, 0.000000000000000000, 0.000000000000000000 ) ) ;
#138 = CC_DESIGN_PERSON_AND_ORGANIZATION_ASSIGNMENT ( #38, #150, ( #71 ) ) ;
#139 = DIRECTION ( 'NONE',  ( 0.000000000000000000, -1.000000000000000000, 0.000000000000000000 ) ) ;
#140 = EDGE_LOOP ( 'NONE', ( #134, #64, #272, #83 ) ) ;
#141 = ORIENTED_EDGE ( 'NONE', *, *, #157, .F. ) ;
#142 = AXIS2_PLACEMENT_3D ( 'NONE', #6, #122, #99 ) ;
#143 = CARTESIAN_POINT ( 'NONE',  ( -4.000000000000000000, 0.000000000000000000, 505.0000000000000000 ) ) ;
#144 = DIRECTION ( 'NONE',  ( 0.000000000000000000, 0.000000000000000000, 1.000000000000000000 ) ) ;
#145 = EDGE_CURVE ( 'NONE', #271, #156, #129, .T. ) ;
#146 = DIRECTION ( 'NONE',  ( -0.000000000000000000, -0.000000000000000000, -1.000000000000000000 ) ) ;
#147 = DESIGN_CONTEXT ( 'detailed design', #196, 'design' ) ;
#148 = PLANE ( 'NONE',  #270 ) ;
#149 =( NAMED_UNIT ( * ) PLANE_ANGLE_UNIT ( ) SI_UNIT ( $, .RADIAN. ) );
#150 = PERSON_AND_ORGANIZATION_ROLE ( 'design_owner' ) ;
#151 = CC_DESIGN_APPROVAL ( #216, ( #18 ) ) ;
#152 = CC_DESIGN_SECURITY_CLASSIFICATION ( #3, ( #24 ) ) ;
#153 = DATE_AND_TIME ( #37, #185 ) ;
#154 = ORIENTED_EDGE ( 'NONE', *, *, #287, .F. ) ;
#155 = DATE_AND_TIME ( #130, #283 ) ;
#156 = VERTEX_POINT ( 'NONE', #113 ) ;
#157 = EDGE_CURVE ( 'NONE', #114, #295, #56, .T. ) ;
#158 = EDGE_CURVE ( 'NONE', #303, #300, #44, .T. ) ;
#159 = APPROVAL ( #10, 'NEURÈENÝ' ) ;
#160 = AXIS2_PLACEMENT_3D ( 'NONE', #70, #43, #137 ) ;
#161 = PERSON_AND_ORGANIZATION_ROLE ( 'creator' ) ;
#162 = ORIENTED_EDGE ( 'NONE', *, *, #46, .T. ) ;
#163 = CARTESIAN_POINT ( 'NONE',  ( 4.200000000000000178, 0.000000000000000000, 5.199999999999982414 ) ) ;
#164 = DIRECTION ( 'NONE',  ( 0.000000000000000000, 0.000000000000000000, 1.000000000000000000 ) ) ;
#165 = DIRECTION ( 'NONE',  ( 1.000000000000000000, 0.000000000000000000, 0.000000000000000000 ) ) ;
#166 = CARTESIAN_POINT ( 'NONE',  ( -7.000000000000000000, 0.000000000000000000, 5.000000000000000000 ) ) ;
#167 = DIRECTION ( 'NONE',  ( 1.000000000000000000, 0.000000000000000000, 0.000000000000000000 ) ) ;
#168 = CIRCLE ( 'NONE', #28, 4.000000000000000000 ) ;
#169 = DIRECTION ( 'NONE',  ( 0.000000000000000000, 0.000000000000000000, 1.000000000000000000 ) ) ;
#170 = UNCERTAINTY_MEASURE_WITH_UNIT (LENGTH_MEASURE( 1.000000000000000082E-05 ), #78, 'distance_accuracy_value', 'NONE');
#171 = DIRECTION ( 'NONE',  ( -0.000000000000000000, -0.000000000000000000, -1.000000000000000000 ) ) ;
#172 = DIRECTION ( 'NONE',  ( 1.000000000000000000, 0.000000000000000000, 0.000000000000000000 ) ) ;
#173 = SECURITY_CLASSIFICATION_LEVEL ( 'unclassified' ) ;
#174 = EDGE_CURVE ( 'NONE', #106, #85, #109, .T. ) ;
#175 = CC_DESIGN_DATE_AND_TIME_ASSIGNMENT ( #248, #200, ( #18 ) ) ;
#176 = PERSON_AND_ORGANIZATION ( #76, #73 ) ;
#177 = AXIS2_PLACEMENT_3D ( 'NONE', #219, #221, #29 ) ;
#178 = APPLICATION_CONTEXT ( 'configuration controlled 3d designs of mechanical parts and assemblies' ) ;
#179 = CALENDAR_DATE ( 2022, 7, 7 ) ;
#180 = ORIENTED_EDGE ( 'NONE', *, *, #233, .T. ) ;
#181 = ADVANCED_FACE ( 'NONE', ( #258 ), #53, .T. ) ;
#182 = APPROVAL_ROLE ( '' ) ;
#183 = ORIENTED_EDGE ( 'NONE', *, *, #127, .F. ) ;
#184 = AXIS2_PLACEMENT_3D ( 'NONE', #269, #133, #293 ) ;
#185 = LOCAL_TIME ( 12, 2, 31.00000000000000000, #57 ) ;
#186 = ADVANCED_FACE ( 'NONE', ( #238, #215 ), #148, .T. ) ;
#187 = CYLINDRICAL_SURFACE ( 'NONE', #223, 7.000000000000000000 ) ;
#188 = FACE_OUTER_BOUND ( 'NONE', #234, .T. ) ;
#189 = DIRECTION ( 'NONE',  ( -0.000000000000000000, -0.000000000000000000, -1.000000000000000000 ) ) ;
#190 = EDGE_CURVE ( 'NONE', #131, #232, #218, .T. ) ;
#191 = ORIENTED_EDGE ( 'NONE', *, *, #190, .F. ) ;
#192 = LINE ( 'NONE', #52, #77 ) ;
#193 = LOCAL_TIME ( 12, 2, 31.00000000000000000, #198 ) ;
#194 = CC_DESIGN_PERSON_AND_ORGANIZATION_ASSIGNMENT ( #204, #224, ( #3 ) ) ;
#195 = FACE_OUTER_BOUND ( 'NONE', #274, .T. ) ;
#196 = APPLICATION_CONTEXT ( 'configuration controlled 3d designs of mechanical parts and assemblies' ) ;
#197 = DIRECTION ( 'NONE',  ( 0.000000000000000000, 0.000000000000000000, 1.000000000000000000 ) ) ;
#198 = COORDINATED_UNIVERSAL_TIME_OFFSET ( 1, 0, .AHEAD. ) ;
#199 = CC_DESIGN_DATE_AND_TIME_ASSIGNMENT ( #267, #33, ( #3 ) ) ;
#200 = DATE_TIME_ROLE ( 'creation_date' ) ;
#201 = ORIENTED_EDGE ( 'NONE', *, *, #127, .T. ) ;
#202 = APPROVAL_DATE_TIME ( #153, #159 ) ;
#203 = CIRCLE ( 'NONE', #125, 4.200000000000000178 ) ;
#204 = PERSON_AND_ORGANIZATION ( #76, #73 ) ;
#205 = EDGE_LOOP ( 'NONE', ( #141, #180, #94, #89 ) ) ;
#206 =( NAMED_UNIT ( * ) SI_UNIT ( $, .STERADIAN. ) SOLID_ANGLE_UNIT ( ) );
#207 = ORIENTED_EDGE ( 'NONE', *, *, #222, .T. ) ;
#208 = VECTOR ( 'NONE', #74, 1000.000000000000000 ) ;
#209 = EDGE_LOOP ( 'NONE', ( #58, #254 ) ) ;
#210 = CARTESIAN_POINT ( 'NONE',  ( -4.000000000000000000, 0.000000000000000000, 505.0000000000000000 ) ) ;
#211 = DIRECTION ( 'NONE',  ( 0.000000000000000000, 0.000000000000000000, -1.000000000000000000 ) ) ;
#212 = AXIS2_PLACEMENT_3D ( 'NONE', #304, #280, #165 ) ;
#213 = ORIENTED_EDGE ( 'NONE', *, *, #287, .T. ) ;
#214 = CARTESIAN_POINT ( 'NONE',  ( 0.000000000000000000, 0.000000000000000000, 505.0000000000000000 ) ) ;
#215 = FACE_OUTER_BOUND ( 'NONE', #108, .T. ) ;
#216 = APPROVAL ( #86, 'NEURÈENÝ' ) ;
#217 = DIRECTION ( 'NONE',  ( 0.000000000000000000, 0.000000000000000000, 1.000000000000000000 ) ) ;
#218 = CIRCLE ( 'NONE', #177, 7.000000000000000000 ) ;
#219 = CARTESIAN_POINT ( 'NONE',  ( 0.000000000000000000, 0.000000000000000000, 0.000000000000000000 ) ) ;
#220 = DIRECTION ( 'NONE',  ( -1.000000000000000000, 0.000000000000000000, 0.000000000000000000 ) ) ;
#221 = DIRECTION ( 'NONE',  ( 0.000000000000000000, 0.000000000000000000, 1.000000000000000000 ) ) ;
#222 = EDGE_CURVE ( 'NONE', #156, #300, #32, .T. ) ;
#223 = AXIS2_PLACEMENT_3D ( 'NONE', #253, #189, #277 ) ;
#224 = PERSON_AND_ORGANIZATION_ROLE ( 'classification_officer' ) ;
#225 = APPLICATION_PROTOCOL_DEFINITION ( 'international standard', 'config_control_design', 1994, #178 ) ;
#226 = APPROVAL_DATE_TIME ( #155, #216 ) ;
#227 = CALENDAR_DATE ( 2022, 7, 7 ) ;
#228 = ORIENTED_EDGE ( 'NONE', *, *, #255, .F. ) ;
#229 = CARTESIAN_POINT ( 'NONE',  ( -4.200000000000000178, 5.143516556418882928E-16, 5.199999999999982414 ) ) ;
#230 = VECTOR ( 'NONE', #116, 1000.000000000000000 ) ;
#231 = CARTESIAN_POINT ( 'NONE',  ( 7.000000000000000000, 8.572527594031473190E-16, 5.000000000000000000 ) ) ;
#232 = VERTEX_POINT ( 'NONE', #97 ) ;
#233 = EDGE_CURVE ( 'NONE', #114, #303, #192, .T. ) ;
#234 = EDGE_LOOP ( 'NONE', ( #249, #228, #162, #60 ) ) ;
#235 = AXIS2_PLACEMENT_3D ( 'NONE', #51, #124, #172 ) ;
#236 = DIRECTION ( 'NONE',  ( 1.000000000000000000, 0.000000000000000000, -0.000000000000000000 ) ) ;
#237 = APPROVAL_PERSON_ORGANIZATION ( #273, #159, #289 ) ;
#238 = FACE_BOUND ( 'NONE', #301, .T. ) ;
#239 = EDGE_CURVE ( 'NONE', #303, #271, #168, .T. ) ;
#240 = CARTESIAN_POINT ( 'NONE',  ( 0.000000000000000000, 0.000000000000000000, 0.000000000000000000 ) ) ;
#241 = DIRECTION ( 'NONE',  ( 0.000000000000000000, 0.000000000000000000, 1.000000000000000000 ) ) ;
#242 = AXIS2_PLACEMENT_3D ( 'NONE', #214, #65, #45 ) ;
#243 = LOCAL_TIME ( 12, 2, 31.00000000000000000, #84 ) ;
#244 = CARTESIAN_POINT ( 'NONE',  ( 0.000000000000000000, 0.000000000000000000, 5.000000000000000000 ) ) ;
#245 = ADVANCED_FACE ( 'NONE', ( #118 ), #120, .F. ) ;
#246 = APPROVAL_STATUS ( 'not_yet_approved' ) ;
#247 = APPROVAL_PERSON_ORGANIZATION ( #105, #216, #182 ) ;
#248 = DATE_AND_TIME ( #13, #193 ) ;
#249 = ORIENTED_EDGE ( 'NONE', *, *, #233, .F. ) ;
#250 = AXIS2_PLACEMENT_3D ( 'NONE', #305, #93, #135 ) ;
#251 = APPROVAL_ROLE ( '' ) ;
#252 = ORIENTED_EDGE ( 'NONE', *, *, #265, .F. ) ;
#253 = CARTESIAN_POINT ( 'NONE',  ( 0.000000000000000000, 0.000000000000000000, 5.000000000000000000 ) ) ;
#254 = ORIENTED_EDGE ( 'NONE', *, *, #157, .T. ) ;
#255 = EDGE_CURVE ( 'NONE', #295, #114, #115, .T. ) ;
#256 = CIRCLE ( 'NONE', #291, 7.000000000000000000 ) ;
#257 = DIRECTION ( 'NONE',  ( 1.224646799147353207E-16, 1.000000000000000000, -0.000000000000000000 ) ) ;
#258 = FACE_OUTER_BOUND ( 'NONE', #205, .T. ) ;
#259 = DIRECTION ( 'NONE',  ( -0.000000000000000000, -0.000000000000000000, -1.000000000000000000 ) ) ;
#260 = CARTESIAN_POINT ( 'NONE',  ( 4.000000000000000000, 4.898587196589412829E-16, 5.199999999999982414 ) ) ;
#261 = CARTESIAN_POINT ( 'NONE',  ( 0.000000000000000000, 0.000000000000000000, 5.000000000000000000 ) ) ;
#262 = APPROVAL_PERSON_ORGANIZATION ( #128, #69, #251 ) ;
#263 = CARTESIAN_POINT ( 'NONE',  ( -4.000000000000000000, 0.000000000000000000, 5.199999999999982414 ) ) ;
#264 = DIRECTION ( 'NONE',  ( -0.000000000000000000, -0.000000000000000000, -1.000000000000000000 ) ) ;
#265 = EDGE_CURVE ( 'NONE', #85, #232, #2, .T. ) ;
#266 = CC_DESIGN_PERSON_AND_ORGANIZATION_ASSIGNMENT ( #12, #161, ( #24 ) ) ;
#267 = DATE_AND_TIME ( #179, #243 ) ;
#268 = CC_DESIGN_PERSON_AND_ORGANIZATION_ASSIGNMENT ( #40, #79, ( #24 ) ) ;
#269 = CARTESIAN_POINT ( 'NONE',  ( 0.000000000000000000, 0.000000000000000000, 0.000000000000000000 ) ) ;
#270 = AXIS2_PLACEMENT_3D ( 'NONE', #26, #144, #95 ) ;
#271 = VERTEX_POINT ( 'NONE', #263 ) ;
#272 = ORIENTED_EDGE ( 'NONE', *, *, #297, .F. ) ;
#273 = PERSON_AND_ORGANIZATION ( #76, #73 ) ;
#274 = EDGE_LOOP ( 'NONE', ( #14, #62, #213, #183 ) ) ;
#275 = APPROVAL_DATE_TIME ( #80, #69 ) ;
#276 = AXIS2_PLACEMENT_3D ( 'NONE', #163, #139, #211 ) ;
#277 = DIRECTION ( 'NONE',  ( -1.000000000000000000, 0.000000000000000000, 0.000000000000000000 ) ) ;
#278 = ADVANCED_FACE ( 'NONE', ( #195 ), #75, .T. ) ;
#279 = FACE_OUTER_BOUND ( 'NONE', #296, .T. ) ;
#280 = DIRECTION ( 'NONE',  ( 0.000000000000000000, 0.000000000000000000, 1.000000000000000000 ) ) ;
#281 = LINE ( 'NONE', #166, #22 ) ;
#282 = CARTESIAN_POINT ( 'NONE',  ( 0.000000000000000000, 0.000000000000000000, 5.000000000000000000 ) ) ;
#283 = LOCAL_TIME ( 12, 2, 31.00000000000000000, #8 ) ;
#284 = DIRECTION ( 'NONE',  ( 1.000000000000000000, 0.000000000000000000, 0.000000000000000000 ) ) ;
#285 = CARTESIAN_POINT ( 'NONE',  ( 7.000000000000000000, 8.572527594031473190E-16, 5.000000000000000000 ) ) ;
#286 = DIRECTION ( 'NONE',  ( 1.000000000000000000, 0.000000000000000000, -0.000000000000000000 ) ) ;
#287 = EDGE_CURVE ( 'NONE', #232, #131, #256, .T. ) ;
#288 = LOCAL_TIME ( 12, 2, 31.00000000000000000, #107 ) ;
#289 = APPROVAL_ROLE ( '' ) ;
#290 = SHAPE_DEFINITION_REPRESENTATION ( #25, #4 ) ;
#291 = AXIS2_PLACEMENT_3D ( 'NONE', #5, #241, #167 ) ;
#292 = ORIENTED_EDGE ( 'NONE', *, *, #297, .T. ) ;
#293 = DIRECTION ( 'NONE',  ( 1.000000000000000000, 0.000000000000000000, 0.000000000000000000 ) ) ;
#294 = ADVANCED_FACE ( 'NONE', ( #98 ), #88, .F. ) ;
#295 = VERTEX_POINT ( 'NONE', #143 ) ;
#296 = EDGE_LOOP ( 'NONE', ( #252, #110, #201, #34 ) ) ;
#297 = EDGE_CURVE ( 'NONE', #300, #156, #203, .T. ) ;
#298 = PRODUCT_RELATED_PRODUCT_CATEGORY ( 'detail', '', ( #71 ) ) ;
#299 = TOROIDAL_SURFACE ( 'NONE', #160, 4.200000000000000178, 0.2000000000000000111 ) ;
#300 = VERTEX_POINT ( 'NONE', #30 ) ;
#301 = EDGE_LOOP ( 'NONE', ( #292, #207 ) ) ;
#302 = EDGE_CURVE ( 'NONE', #85, #106, #100, .T. ) ;
#303 = VERTEX_POINT ( 'NONE', #260 ) ;
#304 = CARTESIAN_POINT ( 'NONE',  ( 0.000000000000000000, 0.000000000000000000, 5.000000000000000000 ) ) ;
#305 = CARTESIAN_POINT ( 'NONE',  ( 0.000000000000000000, 0.000000000000000000, 505.0000000000000000 ) ) ;
#306 = CARTESIAN_POINT ( 'NONE',  ( 0.000000000000000000, 0.000000000000000000, 5.199999999999982414 ) ) ;
#307 = DIRECTION ( 'NONE',  ( -0.000000000000000000, -0.000000000000000000, -1.000000000000000000 ) ) ;
ENDSEC;
END-ISO-10303-21;
