ISO-10303-21;
HEADER;
FILE_DESCRIPTION (( 'STEP AP203' ),
    '1' );
FILE_NAME ('1df4.STEP',
    '2022-07-07T10:33:12',
    ( '' ),
    ( '' ),
    'SwSTEP 2.0',
    'SolidWorks 2019',
    '' );
FILE_SCHEMA (( 'CONFIG_CONTROL_DESIGN' ));
ENDSEC;

DATA;
#1 = CARTESIAN_POINT ( 'NONE',  ( 0.000000000000000000, 0.000000000000000000, 2.000000000000000000 ) ) ;
#2 = AXIS2_PLACEMENT_3D ( 'NONE', #99, #237, #214 ) ;
#3 = LINE ( 'NONE', #145, #187 ) ;
#4 = DIRECTION ( 'NONE',  ( 1.000000000000000000, 0.000000000000000000, 0.000000000000000000 ) ) ;
#5 = DIRECTION ( 'NONE',  ( -0.000000000000000000, -0.000000000000000000, -1.000000000000000000 ) ) ;
#6 = APPROVAL_PERSON_ORGANIZATION ( #207, #185, #226 ) ;
#7 = DIRECTION ( 'NONE',  ( 1.000000000000000000, 0.000000000000000000, 0.000000000000000000 ) ) ;
#8 = CC_DESIGN_PERSON_AND_ORGANIZATION_ASSIGNMENT ( #10, #110, ( #127 ) ) ;
#9 =( NAMED_UNIT ( * ) PLANE_ANGLE_UNIT ( ) SI_UNIT ( $, .RADIAN. ) );
#10 = PERSON_AND_ORGANIZATION ( #93, #267 ) ;
#11 = PRODUCT_RELATED_PRODUCT_CATEGORY ( 'detail', '', ( #248 ) ) ;
#12 = DIRECTION ( 'NONE',  ( 1.000000000000000000, 0.000000000000000000, 0.000000000000000000 ) ) ;
#13 = CC_DESIGN_PERSON_AND_ORGANIZATION_ASSIGNMENT ( #306, #282, ( #41 ) ) ;
#14 = COORDINATED_UNIVERSAL_TIME_OFFSET ( 1, 0, .AHEAD. ) ;
#15 = VERTEX_POINT ( 'NONE', #275 ) ;
#16 = APPROVAL_DATE_TIME ( #272, #185 ) ;
#17 = CARTESIAN_POINT ( 'NONE',  ( 0.000000000000000000, 0.000000000000000000, 2.000000000000000000 ) ) ;
#18 = COORDINATED_UNIVERSAL_TIME_OFFSET ( 1, 0, .AHEAD. ) ;
#19 = DIRECTION ( 'NONE',  ( 1.000000000000000000, 0.000000000000000000, 0.000000000000000000 ) ) ;
#20 = AXIS2_PLACEMENT_3D ( 'NONE', #175, #303, #89 ) ;
#21 = PERSON_AND_ORGANIZATION ( #93, #267 ) ;
#22 = EDGE_LOOP ( 'NONE', ( #88, #111 ) ) ;
#23 = AXIS2_PLACEMENT_3D ( 'NONE', #121, #182, #76 ) ;
#24 = DIRECTION ( 'NONE',  ( 1.000000000000000000, 0.000000000000000000, 0.000000000000000000 ) ) ;
#25 = CC_DESIGN_DATE_AND_TIME_ASSIGNMENT ( #86, #161, ( #127 ) ) ;
#26 = CC_DESIGN_PERSON_AND_ORGANIZATION_ASSIGNMENT ( #114, #202, ( #106 ) ) ;
#27 = CIRCLE ( 'NONE', #190, 1.250000000000000000 ) ;
#28 = CYLINDRICAL_SURFACE ( 'NONE', #80, 2.500000000000000000 ) ;
#29 = EDGE_CURVE ( 'NONE', #171, #255, #157, .T. ) ;
#30 = CARTESIAN_POINT ( 'NONE',  ( 0.000000000000000000, 0.000000000000000000, 162.0000000000000000 ) ) ;
#31 = CC_DESIGN_APPROVAL ( #185, ( #106 ) ) ;
#32 = ORIENTED_EDGE ( 'NONE', *, *, #164, .T. ) ;
#33 = EDGE_CURVE ( 'NONE', #108, #155, #296, .T. ) ;
#34 = AXIS2_PLACEMENT_3D ( 'NONE', #135, #131, #176 ) ;
#35 = DIRECTION ( 'NONE',  ( 0.000000000000000000, 0.000000000000000000, 1.000000000000000000 ) ) ;
#36 = PRODUCT_DEFINITION_SHAPE ( 'NONE', 'NONE',  #106 ) ;
#37 = APPROVAL_STATUS ( 'not_yet_approved' ) ;
#38 = CARTESIAN_POINT ( 'NONE',  ( 0.000000000000000000, 0.000000000000000000, 2.000000000000000000 ) ) ;
#39 = APPLICATION_PROTOCOL_DEFINITION ( 'international standard', 'config_control_design', 1994, #265 ) ;
#40 = DIRECTION ( 'NONE',  ( 0.000000000000000000, 0.000000000000000000, 1.000000000000000000 ) ) ;
#41 = PRODUCT_DEFINITION_FORMATION_WITH_SPECIFIED_SOURCE ( 'LIBOVOLNÝ', '', #248, .NOT_KNOWN. ) ;
#42 = ORIENTED_EDGE ( 'NONE', *, *, #200, .T. ) ;
#43 = APPROVAL_STATUS ( 'not_yet_approved' ) ;
#44 = DIRECTION ( 'NONE',  ( 1.000000000000000000, 0.000000000000000000, 0.000000000000000000 ) ) ;
#45 = CARTESIAN_POINT ( 'NONE',  ( 0.000000000000000000, 0.000000000000000000, 2.200000000000007283 ) ) ;
#46 = LINE ( 'NONE', #210, #204 ) ;
#47 = EDGE_CURVE ( 'NONE', #223, #201, #98, .T. ) ;
#48 = FACE_OUTER_BOUND ( 'NONE', #292, .T. ) ;
#49 = DIRECTION ( 'NONE',  ( 0.000000000000000000, 0.000000000000000000, -1.000000000000000000 ) ) ;
#50 = DIRECTION ( 'NONE',  ( -1.000000000000000000, 0.000000000000000000, 0.000000000000000000 ) ) ;
#51 = AXIS2_PLACEMENT_3D ( 'NONE', #240, #78, #168 ) ;
#52 = EDGE_LOOP ( 'NONE', ( #193, #178 ) ) ;
#53 = CLOSED_SHELL ( 'NONE', ( #286, #298, #219, #209, #236, #245, #276, #192, #103 ) ) ;
#54 = EDGE_LOOP ( 'NONE', ( #112, #305, #153, #244 ) ) ;
#55 = LOCAL_TIME ( 12, 33, 12.00000000000000000, #197 ) ;
#56 = EDGE_LOOP ( 'NONE', ( #105, #42, #107, #173 ) ) ;
#57 = EDGE_LOOP ( 'NONE', ( #217, #307 ) ) ;
#58 = APPROVAL ( #43, 'NEURÈENÝ' ) ;
#59 = SECURITY_CLASSIFICATION_LEVEL ( 'unclassified' ) ;
#60 = VECTOR ( 'NONE', #215, 1000.000000000000000 ) ;
#61 = CARTESIAN_POINT ( 'NONE',  ( 1.250000000000000000, 1.530808498934191571E-16, 162.0000000000000000 ) ) ;
#62 = PERSON_AND_ORGANIZATION ( #93, #267 ) ;
#63 = EDGE_LOOP ( 'NONE', ( #67, #82, #172, #136 ) ) ;
#64 = EDGE_CURVE ( 'NONE', #171, #229, #163, .T. ) ;
#65 = VERTEX_POINT ( 'NONE', #227 ) ;
#66 = CALENDAR_DATE ( 2022, 7, 7 ) ;
#67 = ORIENTED_EDGE ( 'NONE', *, *, #29, .F. ) ;
#68 = PERSON_AND_ORGANIZATION ( #93, #267 ) ;
#69 = CC_DESIGN_SECURITY_CLASSIFICATION ( #127, ( #41 ) ) ;
#70 = DIRECTION ( 'NONE',  ( 1.000000000000000000, 0.000000000000000000, 0.000000000000000000 ) ) ;
#71 = FACE_OUTER_BOUND ( 'NONE', #130, .T. ) ;
#72 = VECTOR ( 'NONE', #115, 1000.000000000000000 ) ;
#73 = DIRECTION ( 'NONE',  ( 0.000000000000000000, -1.000000000000000000, 0.000000000000000000 ) ) ;
#74 = AXIS2_PLACEMENT_3D ( 'NONE', #30, #102, #50 ) ;
#75 = CARTESIAN_POINT ( 'NONE',  ( 1.450000000000000178, 0.000000000000000000, 2.200000000000007283 ) ) ;
#76 = DIRECTION ( 'NONE',  ( -1.000000000000000000, 0.000000000000000000, 0.000000000000000000 ) ) ;
#77 = CIRCLE ( 'NONE', #134, 2.500000000000000000 ) ;
#78 = DIRECTION ( 'NONE',  ( 0.000000000000000000, 0.000000000000000000, 1.000000000000000000 ) ) ;
#79 = ORIENTED_EDGE ( 'NONE', *, *, #113, .F. ) ;
#80 = AXIS2_PLACEMENT_3D ( 'NONE', #1, #5, #212 ) ;
#81 = EDGE_CURVE ( 'NONE', #15, #65, #77, .T. ) ;
#82 = ORIENTED_EDGE ( 'NONE', *, *, #280, .F. ) ;
#83 = MANIFOLD_SOLID_BREP ( 'Zaoblit1', #53 ) ;
#84 =( LENGTH_UNIT ( ) NAMED_UNIT ( * ) SI_UNIT ( .MILLI., .METRE. ) );
#85 = APPROVAL_PERSON_ORGANIZATION ( #304, #174, #177 ) ;
#86 = DATE_AND_TIME ( #295, #55 ) ;
#87 = VERTEX_POINT ( 'NONE', #235 ) ;
#88 = ORIENTED_EDGE ( 'NONE', *, *, #239, .F. ) ;
#89 = DIRECTION ( 'NONE',  ( -1.000000000000000000, 1.224646799147353207E-16, 0.000000000000000000 ) ) ;
#90 = UNCERTAINTY_MEASURE_WITH_UNIT (LENGTH_MEASURE( 1.000000000000000082E-05 ), #84, 'distance_accuracy_value', 'NONE');
#91 = APPROVAL_STATUS ( 'not_yet_approved' ) ;
#92 = CARTESIAN_POINT ( 'NONE',  ( 0.000000000000000000, 0.000000000000000000, 0.000000000000000000 ) ) ;
#93 = PERSON ( 'NEURÈENÝ', 'NEURÈENÝ', 'NEURÈENÝ', ('NEURÈENÝ'), ('NEURÈENÝ'), ('NEURÈENÝ') ) ;
#94 = DIRECTION ( 'NONE',  ( 1.000000000000000000, 0.000000000000000000, 0.000000000000000000 ) ) ;
#95 = AXIS2_PLACEMENT_3D ( 'NONE', #45, #146, #144 ) ;
#96 = CARTESIAN_POINT ( 'NONE',  ( -1.250000000000000000, 0.000000000000000000, 162.0000000000000000 ) ) ;
#97 = DIRECTION ( 'NONE',  ( -0.000000000000000000, -0.000000000000000000, -1.000000000000000000 ) ) ;
#98 = CIRCLE ( 'NONE', #213, 1.450000000000000178 ) ;
#99 = CARTESIAN_POINT ( 'NONE',  ( 0.000000000000000000, 0.000000000000000000, 2.000000000000000000 ) ) ;
#100 = FACE_OUTER_BOUND ( 'NONE', #56, .T. ) ;
#101 = APPROVAL_PERSON_ORGANIZATION ( #21, #58, #141 ) ;
#102 = DIRECTION ( 'NONE',  ( -0.000000000000000000, -0.000000000000000000, -1.000000000000000000 ) ) ;
#103 = ADVANCED_FACE ( 'NONE', ( #299 ), #247, .F. ) ;
#104 =( NAMED_UNIT ( * ) SI_UNIT ( $, .STERADIAN. ) SOLID_ANGLE_UNIT ( ) );
#105 = ORIENTED_EDGE ( 'NONE', *, *, #81, .F. ) ;
#106 = PRODUCT_DEFINITION ( 'NEZNÁMÝ', '', #41, #278 ) ;
#107 = ORIENTED_EDGE ( 'NONE', *, *, #33, .T. ) ;
#108 = VERTEX_POINT ( 'NONE', #203 ) ;
#109 = AXIS2_PLACEMENT_3D ( 'NONE', #126, #216, #7 ) ;
#110 = PERSON_AND_ORGANIZATION_ROLE ( 'classification_officer' ) ;
#111 = ORIENTED_EDGE ( 'NONE', *, *, #33, .F. ) ;
#112 = ORIENTED_EDGE ( 'NONE', *, *, #64, .F. ) ;
#113 = EDGE_CURVE ( 'NONE', #65, #15, #253, .T. ) ;
#114 = PERSON_AND_ORGANIZATION ( #93, #267 ) ;
#115 = DIRECTION ( 'NONE',  ( -0.000000000000000000, -0.000000000000000000, -1.000000000000000000 ) ) ;
#116 = CC_DESIGN_DATE_AND_TIME_ASSIGNMENT ( #118, #205, ( #106 ) ) ;
#117 = CC_DESIGN_APPROVAL ( #174, ( #41 ) ) ;
#118 = DATE_AND_TIME ( #301, #188 ) ;
#119 = CARTESIAN_POINT ( 'NONE',  ( 0.000000000000000000, 0.000000000000000000, 162.0000000000000000 ) ) ;
#120 = DIRECTION ( 'NONE',  ( 1.000000000000000000, 0.000000000000000000, 0.000000000000000000 ) ) ;
#121 = CARTESIAN_POINT ( 'NONE',  ( 0.000000000000000000, 0.000000000000000000, 2.000000000000000000 ) ) ;
#122 = DIRECTION ( 'NONE',  ( -0.000000000000000000, -0.000000000000000000, -1.000000000000000000 ) ) ;
#123 = CARTESIAN_POINT ( 'NONE',  ( 1.450000000000000178, 0.000000000000000000, 2.000000000000003553 ) ) ;
#124 = CARTESIAN_POINT ( 'NONE',  ( 0.000000000000000000, 0.000000000000000000, 162.0000000000000000 ) ) ;
#125 = AXIS2_PLACEMENT_3D ( 'NONE', #262, #260, #289 ) ;
#126 = CARTESIAN_POINT ( 'NONE',  ( 0.000000000000000000, 0.000000000000000000, 2.200000000000007283 ) ) ;
#127 = SECURITY_CLASSIFICATION ( '', '', #59 ) ;
#128 = APPLICATION_PROTOCOL_DEFINITION ( 'international standard', 'config_control_design', 1994, #234 ) ;
#129 = ORIENTED_EDGE ( 'NONE', *, *, #164, .F. ) ;
#130 = EDGE_LOOP ( 'NONE', ( #206, #32, #160, #208 ) ) ;
#131 = DIRECTION ( 'NONE',  ( 0.000000000000000000, 0.000000000000000000, 1.000000000000000000 ) ) ;
#132 = EDGE_LOOP ( 'NONE', ( #129, #268, #220, #138 ) ) ;
#133 = FACE_OUTER_BOUND ( 'NONE', #57, .T. ) ;
#134 = AXIS2_PLACEMENT_3D ( 'NONE', #38, #283, #70 ) ;
#135 = CARTESIAN_POINT ( 'NONE',  ( 0.000000000000000000, 0.000000000000000000, 0.000000000000000000 ) ) ;
#136 = ORIENTED_EDGE ( 'NONE', *, *, #169, .T. ) ;
#137 = PERSON_AND_ORGANIZATION_ROLE ( 'design_owner' ) ;
#138 = ORIENTED_EDGE ( 'NONE', *, *, #47, .F. ) ;
#139 = DATE_AND_TIME ( #66, #149 ) ;
#140 = CARTESIAN_POINT ( 'NONE',  ( 0.000000000000000000, 0.000000000000000000, 2.000000000000000000 ) ) ;
#141 = APPROVAL_ROLE ( '' ) ;
#142 = DIRECTION ( 'NONE',  ( 0.000000000000000000, 0.000000000000000000, 1.000000000000000000 ) ) ;
#143 = DATE_AND_TIME ( #233, #211 ) ;
#144 = DIRECTION ( 'NONE',  ( 1.000000000000000000, 0.000000000000000000, 0.000000000000000000 ) ) ;
#145 = CARTESIAN_POINT ( 'NONE',  ( -1.250000000000000000, 0.000000000000000000, 162.0000000000000000 ) ) ;
#146 = DIRECTION ( 'NONE',  ( 0.000000000000000000, 0.000000000000000000, 1.000000000000000000 ) ) ;
#147 = FACE_OUTER_BOUND ( 'NONE', #63, .T. ) ;
#148 = CARTESIAN_POINT ( 'NONE',  ( -1.450000000000000178, 1.775737858763662409E-16, 2.000000000000003553 ) ) ;
#149 = LOCAL_TIME ( 12, 33, 12.00000000000000000, #279 ) ;
#150 = CC_DESIGN_PERSON_AND_ORGANIZATION_ASSIGNMENT ( #62, #137, ( #248 ) ) ;
#151 = ORIENTED_EDGE ( 'NONE', *, *, #200, .F. ) ;
#152 = AXIS2_PLACEMENT_3D ( 'NONE', #75, #73, #49 ) ;
#153 = ORIENTED_EDGE ( 'NONE', *, *, #300, .T. ) ;
#154 = CIRCLE ( 'NONE', #20, 0.2000000000000000944 ) ;
#155 = VERTEX_POINT ( 'NONE', #273 ) ;
#156 = PLANE ( 'NONE',  #232 ) ;
#157 = LINE ( 'NONE', #258, #72 ) ;
#158 = AXIS2_PLACEMENT_3D ( 'NONE', #17, #142, #44 ) ;
#159 = DIRECTION ( 'NONE',  ( 0.000000000000000000, 0.000000000000000000, 1.000000000000000000 ) ) ;
#160 = ORIENTED_EDGE ( 'NONE', *, *, #290, .F. ) ;
#161 = DATE_TIME_ROLE ( 'classification_date' ) ;
#162 = CARTESIAN_POINT ( 'NONE',  ( 0.000000000000000000, 0.000000000000000000, 2.200000000000007283 ) ) ;
#163 = CIRCLE ( 'NONE', #270, 1.250000000000000000 ) ;
#164 = EDGE_CURVE ( 'NONE', #87, #223, #154, .T. ) ;
#165 = DIRECTION ( 'NONE',  ( 0.000000000000000000, 0.000000000000000000, 1.000000000000000000 ) ) ;
#166 = CYLINDRICAL_SURFACE ( 'NONE', #125, 1.250000000000000000 ) ;
#167 = DIRECTION ( 'NONE',  ( 0.000000000000000000, 0.000000000000000000, 1.000000000000000000 ) ) ;
#168 = DIRECTION ( 'NONE',  ( 1.000000000000000000, 0.000000000000000000, -0.000000000000000000 ) ) ;
#169 = EDGE_CURVE ( 'NONE', #87, #255, #27, .T. ) ;
#170 = ORIENTED_EDGE ( 'NONE', *, *, #198, .T. ) ;
#171 = VERTEX_POINT ( 'NONE', #61 ) ;
#172 = ORIENTED_EDGE ( 'NONE', *, *, #259, .T. ) ;
#173 = ORIENTED_EDGE ( 'NONE', *, *, #198, .F. ) ;
#174 = APPROVAL ( #91, 'NEURÈENÝ' ) ;
#175 = CARTESIAN_POINT ( 'NONE',  ( -1.450000000000000178, 1.775737858763662163E-16, 2.200000000000007283 ) ) ;
#176 = DIRECTION ( 'NONE',  ( 1.000000000000000000, 0.000000000000000000, 0.000000000000000000 ) ) ;
#177 = APPROVAL_ROLE ( '' ) ;
#178 = ORIENTED_EDGE ( 'NONE', *, *, #47, .T. ) ;
#179 = CARTESIAN_POINT ( 'NONE',  ( 0.000000000000000000, 0.000000000000000000, 162.0000000000000000 ) ) ;
#180 = CC_DESIGN_APPROVAL ( #58, ( #127 ) ) ;
#181 = AXIS2_PLACEMENT_3D ( 'NONE', #263, #243, #4 ) ;
#182 = DIRECTION ( 'NONE',  ( -0.000000000000000000, -0.000000000000000000, -1.000000000000000000 ) ) ;
#183 = APPROVAL_DATE_TIME ( #143, #58 ) ;
#184 = FACE_OUTER_BOUND ( 'NONE', #231, .T. ) ;
#185 = APPROVAL ( #37, 'NEURÈENÝ' ) ;
#186 = PLANE ( 'NONE',  #218 ) ;
#187 = VECTOR ( 'NONE', #97, 1000.000000000000000 ) ;
#188 = LOCAL_TIME ( 12, 33, 12.00000000000000000, #18 ) ;
#189 = PLANE ( 'NONE',  #51 ) ;
#190 = AXIS2_PLACEMENT_3D ( 'NONE', #277, #254, #12 ) ;
#191 = FACE_OUTER_BOUND ( 'NONE', #54, .T. ) ;
#192 = ADVANCED_FACE ( 'NONE', ( #133 ), #156, .T. ) ;
#193 = ORIENTED_EDGE ( 'NONE', *, *, #290, .T. ) ;
#194 = ORIENTED_EDGE ( 'NONE', *, *, #113, .T. ) ;
#195 = LOCAL_TIME ( 12, 33, 12.00000000000000000, #14 ) ;
#196 = ADVANCED_BREP_SHAPE_REPRESENTATION ( '1df4', ( #83, #34 ), #246 ) ;
#197 = COORDINATED_UNIVERSAL_TIME_OFFSET ( 1, 0, .AHEAD. ) ;
#198 = EDGE_CURVE ( 'NONE', #65, #155, #224, .T. ) ;
#199 = DIRECTION ( 'NONE',  ( 0.000000000000000000, 0.000000000000000000, 1.000000000000000000 ) ) ;
#200 = EDGE_CURVE ( 'NONE', #15, #108, #46, .T. ) ;
#201 = VERTEX_POINT ( 'NONE', #123 ) ;
#202 = PERSON_AND_ORGANIZATION_ROLE ( 'creator' ) ;
#203 = CARTESIAN_POINT ( 'NONE',  ( 2.500000000000000000, 3.061616997868383141E-16, 0.000000000000000000 ) ) ;
#204 = VECTOR ( 'NONE', #122, 1000.000000000000000 ) ;
#205 = DATE_TIME_ROLE ( 'creation_date' ) ;
#206 = ORIENTED_EDGE ( 'NONE', *, *, #169, .F. ) ;
#207 = PERSON_AND_ORGANIZATION ( #93, #267 ) ;
#208 = ORIENTED_EDGE ( 'NONE', *, *, #221, .F. ) ;
#209 = ADVANCED_FACE ( 'NONE', ( #184 ), #28, .T. ) ;
#210 = CARTESIAN_POINT ( 'NONE',  ( 2.500000000000000000, 3.061616997868383141E-16, 2.000000000000000000 ) ) ;
#211 = LOCAL_TIME ( 12, 33, 12.00000000000000000, #257 ) ;
#212 = DIRECTION ( 'NONE',  ( -1.000000000000000000, 0.000000000000000000, 0.000000000000000000 ) ) ;
#213 = AXIS2_PLACEMENT_3D ( 'NONE', #140, #252, #94 ) ;
#214 = DIRECTION ( 'NONE',  ( 1.000000000000000000, 0.000000000000000000, 0.000000000000000000 ) ) ;
#215 = DIRECTION ( 'NONE',  ( -0.000000000000000000, -0.000000000000000000, -1.000000000000000000 ) ) ;
#216 = DIRECTION ( 'NONE',  ( 0.000000000000000000, 0.000000000000000000, 1.000000000000000000 ) ) ;
#217 = ORIENTED_EDGE ( 'NONE', *, *, #280, .T. ) ;
#218 = AXIS2_PLACEMENT_3D ( 'NONE', #261, #167, #287 ) ;
#219 = ADVANCED_FACE ( 'NONE', ( #100 ), #264, .T. ) ;
#220 = ORIENTED_EDGE ( 'NONE', *, *, #221, .T. ) ;
#221 = EDGE_CURVE ( 'NONE', #255, #201, #274, .T. ) ;
#222 = PERSON_AND_ORGANIZATION_ROLE ( 'design_supplier' ) ;
#223 = VERTEX_POINT ( 'NONE', #148 ) ;
#224 = LINE ( 'NONE', #251, #60 ) ;
#225 = AXIS2_PLACEMENT_3D ( 'NONE', #92, #40, #120 ) ;
#226 = APPROVAL_ROLE ( '' ) ;
#227 = CARTESIAN_POINT ( 'NONE',  ( -2.500000000000000000, 0.000000000000000000, 2.000000000000000000 ) ) ;
#228 = CALENDAR_DATE ( 2022, 7, 7 ) ;
#229 = VERTEX_POINT ( 'NONE', #96 ) ;
#230 = APPROVAL_DATE_TIME ( #139, #174 ) ;
#231 = EDGE_LOOP ( 'NONE', ( #151, #79, #170, #249 ) ) ;
#232 = AXIS2_PLACEMENT_3D ( 'NONE', #119, #35, #281 ) ;
#233 = CALENDAR_DATE ( 2022, 7, 7 ) ;
#234 = APPLICATION_CONTEXT ( 'configuration controlled 3d designs of mechanical parts and assemblies' ) ;
#235 = CARTESIAN_POINT ( 'NONE',  ( -1.250000000000000000, 0.000000000000000000, 2.200000000000007283 ) ) ;
#236 = ADVANCED_FACE ( 'NONE', ( #284, #48 ), #186, .T. ) ;
#237 = DIRECTION ( 'NONE',  ( -0.000000000000000000, -0.000000000000000000, -1.000000000000000000 ) ) ;
#238 = CARTESIAN_POINT ( 'NONE',  ( 1.250000000000000000, 1.530808498934191571E-16, 2.200000000000007283 ) ) ;
#239 = EDGE_CURVE ( 'NONE', #155, #108, #302, .T. ) ;
#240 = CARTESIAN_POINT ( 'NONE',  ( 0.000000000000000000, 0.000000000000000000, 0.000000000000000000 ) ) ;
#241 = CIRCLE ( 'NONE', #266, 1.250000000000000000 ) ;
#242 = CIRCLE ( 'NONE', #95, 1.250000000000000000 ) ;
#243 = DIRECTION ( 'NONE',  ( 0.000000000000000000, 0.000000000000000000, 1.000000000000000000 ) ) ;
#244 = ORIENTED_EDGE ( 'NONE', *, *, #259, .F. ) ;
#245 = ADVANCED_FACE ( 'NONE', ( #288 ), #189, .F. ) ;
#246 =( GEOMETRIC_REPRESENTATION_CONTEXT ( 3 ) GLOBAL_UNCERTAINTY_ASSIGNED_CONTEXT ( ( #90 ) ) GLOBAL_UNIT_ASSIGNED_CONTEXT ( ( #84, #9, #104 ) ) REPRESENTATION_CONTEXT ( 'NONE', 'WORKASPACE' ) );
#247 = TOROIDAL_SURFACE ( 'NONE', #291, 1.450000000000000178, 0.2000000000000000111 ) ;
#248 = PRODUCT ( '1df4', '1df4', '', ( #250 ) ) ;
#249 = ORIENTED_EDGE ( 'NONE', *, *, #239, .T. ) ;
#250 = MECHANICAL_CONTEXT ( 'NONE', #234, 'mechanical' ) ;
#251 = CARTESIAN_POINT ( 'NONE',  ( -2.500000000000000000, 0.000000000000000000, 2.000000000000000000 ) ) ;
#252 = DIRECTION ( 'NONE',  ( -0.000000000000000000, -0.000000000000000000, -1.000000000000000000 ) ) ;
#253 = CIRCLE ( 'NONE', #158, 2.500000000000000000 ) ;
#254 = DIRECTION ( 'NONE',  ( 0.000000000000000000, 0.000000000000000000, 1.000000000000000000 ) ) ;
#255 = VERTEX_POINT ( 'NONE', #238 ) ;
#256 = CIRCLE ( 'NONE', #2, 1.450000000000000178 ) ;
#257 = COORDINATED_UNIVERSAL_TIME_OFFSET ( 1, 0, .AHEAD. ) ;
#258 = CARTESIAN_POINT ( 'NONE',  ( 1.250000000000000000, 1.530808498934191571E-16, 162.0000000000000000 ) ) ;
#259 = EDGE_CURVE ( 'NONE', #229, #87, #3, .T. ) ;
#260 = DIRECTION ( 'NONE',  ( -0.000000000000000000, -0.000000000000000000, -1.000000000000000000 ) ) ;
#261 = CARTESIAN_POINT ( 'NONE',  ( 0.000000000000000000, 0.000000000000000000, 2.000000000000000000 ) ) ;
#262 = CARTESIAN_POINT ( 'NONE',  ( 0.000000000000000000, 0.000000000000000000, 162.0000000000000000 ) ) ;
#263 = CARTESIAN_POINT ( 'NONE',  ( 0.000000000000000000, 0.000000000000000000, 0.000000000000000000 ) ) ;
#264 = CYLINDRICAL_SURFACE ( 'NONE', #23, 2.500000000000000000 ) ;
#265 = APPLICATION_CONTEXT ( 'configuration controlled 3d designs of mechanical parts and assemblies' ) ;
#266 = AXIS2_PLACEMENT_3D ( 'NONE', #124, #165, #24 ) ;
#267 = ORGANIZATION ( 'NEURÈENÝ', 'NEURÈENÝ', '' ) ;
#268 = ORIENTED_EDGE ( 'NONE', *, *, #300, .F. ) ;
#269 = CC_DESIGN_PERSON_AND_ORGANIZATION_ASSIGNMENT ( #68, #222, ( #41 ) ) ;
#270 = AXIS2_PLACEMENT_3D ( 'NONE', #179, #159, #19 ) ;
#271 = TOROIDAL_SURFACE ( 'NONE', #109, 1.450000000000000178, 0.2000000000000000111 ) ;
#272 = DATE_AND_TIME ( #228, #195 ) ;
#273 = CARTESIAN_POINT ( 'NONE',  ( -2.500000000000000000, 0.000000000000000000, 0.000000000000000000 ) ) ;
#274 = CIRCLE ( 'NONE', #152, 0.2000000000000000944 ) ;
#275 = CARTESIAN_POINT ( 'NONE',  ( 2.500000000000000000, 3.061616997868383141E-16, 2.000000000000000000 ) ) ;
#276 = ADVANCED_FACE ( 'NONE', ( #147 ), #285, .T. ) ;
#277 = CARTESIAN_POINT ( 'NONE',  ( 0.000000000000000000, 0.000000000000000000, 2.200000000000007283 ) ) ;
#278 = DESIGN_CONTEXT ( 'detailed design', #265, 'design' ) ;
#279 = COORDINATED_UNIVERSAL_TIME_OFFSET ( 1, 0, .AHEAD. ) ;
#280 = EDGE_CURVE ( 'NONE', #229, #171, #241, .T. ) ;
#281 = DIRECTION ( 'NONE',  ( 1.000000000000000000, 0.000000000000000000, -0.000000000000000000 ) ) ;
#282 = PERSON_AND_ORGANIZATION_ROLE ( 'creator' ) ;
#283 = DIRECTION ( 'NONE',  ( 0.000000000000000000, 0.000000000000000000, 1.000000000000000000 ) ) ;
#284 = FACE_BOUND ( 'NONE', #52, .T. ) ;
#285 = CYLINDRICAL_SURFACE ( 'NONE', #74, 1.250000000000000000 ) ;
#286 = ADVANCED_FACE ( 'NONE', ( #71 ), #271, .F. ) ;
#287 = DIRECTION ( 'NONE',  ( 1.000000000000000000, 0.000000000000000000, -0.000000000000000000 ) ) ;
#288 = FACE_OUTER_BOUND ( 'NONE', #22, .T. ) ;
#289 = DIRECTION ( 'NONE',  ( -1.000000000000000000, 0.000000000000000000, 0.000000000000000000 ) ) ;
#290 = EDGE_CURVE ( 'NONE', #201, #223, #256, .T. ) ;
#291 = AXIS2_PLACEMENT_3D ( 'NONE', #162, #199, #297 ) ;
#292 = EDGE_LOOP ( 'NONE', ( #194, #294 ) ) ;
#293 = SHAPE_DEFINITION_REPRESENTATION ( #36, #196 ) ;
#294 = ORIENTED_EDGE ( 'NONE', *, *, #81, .T. ) ;
#295 = CALENDAR_DATE ( 2022, 7, 7 ) ;
#296 = CIRCLE ( 'NONE', #225, 2.500000000000000000 ) ;
#297 = DIRECTION ( 'NONE',  ( 1.000000000000000000, 0.000000000000000000, 0.000000000000000000 ) ) ;
#298 = ADVANCED_FACE ( 'NONE', ( #191 ), #166, .T. ) ;
#299 = FACE_OUTER_BOUND ( 'NONE', #132, .T. ) ;
#300 = EDGE_CURVE ( 'NONE', #255, #87, #242, .T. ) ;
#301 = CALENDAR_DATE ( 2022, 7, 7 ) ;
#302 = CIRCLE ( 'NONE', #181, 2.500000000000000000 ) ;
#303 = DIRECTION ( 'NONE',  ( 1.224646799147353207E-16, 1.000000000000000000, -0.000000000000000000 ) ) ;
#304 = PERSON_AND_ORGANIZATION ( #93, #267 ) ;
#305 = ORIENTED_EDGE ( 'NONE', *, *, #29, .T. ) ;
#306 = PERSON_AND_ORGANIZATION ( #93, #267 ) ;
#307 = ORIENTED_EDGE ( 'NONE', *, *, #64, .T. ) ;
ENDSEC;
END-ISO-10303-21;
