ISO-10303-21;
HEADER;
FILE_DESCRIPTION (( 'STEP AP203' ),
    '1' );
FILE_NAME ('78eb.STEP',
    '2022-07-07T10:17:50',
    ( '' ),
    ( '' ),
    'SwSTEP 2.0',
    'SolidWorks 2019',
    '' );
FILE_SCHEMA (( 'CONFIG_CONTROL_DESIGN' ));
ENDSEC;

DATA;
#1 = AXIS2_PLACEMENT_3D ( 'NONE', #211, #302, #210 ) ;
#2 = APPROVAL_STATUS ( 'not_yet_approved' ) ;
#3 = APPROVAL_PERSON_ORGANIZATION ( #123, #118, #305 ) ;
#4 = ORIENTED_EDGE ( 'NONE', *, *, #29, .T. ) ;
#5 = PERSON_AND_ORGANIZATION_ROLE ( 'classification_officer' ) ;
#6 = VERTEX_POINT ( 'NONE', #37 ) ;
#7 = ORIENTED_EDGE ( 'NONE', *, *, #224, .T. ) ;
#8 = ADVANCED_FACE ( 'NONE', ( #295 ), #227, .F. ) ;
#9 = CC_DESIGN_PERSON_AND_ORGANIZATION_ASSIGNMENT ( #262, #49, ( #193 ) ) ;
#10 = DIRECTION ( 'NONE',  ( 0.000000000000000000, 0.000000000000000000, 1.000000000000000000 ) ) ;
#11 = LOCAL_TIME ( 12, 17, 50.00000000000000000, #214 ) ;
#12 = DIRECTION ( 'NONE',  ( 1.000000000000000000, 0.000000000000000000, -0.000000000000000000 ) ) ;
#13 = DIRECTION ( 'NONE',  ( -1.000000000000000000, 0.000000000000000000, 0.000000000000000000 ) ) ;
#14 = EDGE_CURVE ( 'NONE', #103, #284, #131, .T. ) ;
#15 = AXIS2_PLACEMENT_3D ( 'NONE', #272, #158, #109 ) ;
#16 = CARTESIAN_POINT ( 'NONE',  ( 0.000000000000000000, 0.000000000000000000, 3.000000000000000000 ) ) ;
#17 = AXIS2_PLACEMENT_3D ( 'NONE', #115, #303, #208 ) ;
#18 = DIRECTION ( 'NONE',  ( -1.000000000000000000, 1.224646799147353207E-16, 0.000000000000000000 ) ) ;
#19 = DIRECTION ( 'NONE',  ( -0.000000000000000000, -0.000000000000000000, -1.000000000000000000 ) ) ;
#20 = DIRECTION ( 'NONE',  ( 1.000000000000000000, 0.000000000000000000, 0.000000000000000000 ) ) ;
#21 = CIRCLE ( 'NONE', #132, 2.799999999999999822 ) ;
#22 = DIRECTION ( 'NONE',  ( -0.000000000000000000, -0.000000000000000000, -1.000000000000000000 ) ) ;
#23 = CARTESIAN_POINT ( 'NONE',  ( 0.000000000000000000, 0.000000000000000000, 3.200000000000008171 ) ) ;
#24 = PERSON_AND_ORGANIZATION ( #276, #61 ) ;
#25 = AXIS2_PLACEMENT_3D ( 'NONE', #41, #195, #177 ) ;
#26 = ADVANCED_FACE ( 'NONE', ( #136 ), #84, .T. ) ;
#27 = APPLICATION_PROTOCOL_DEFINITION ( 'international standard', 'config_control_design', 1994, #135 ) ;
#28 = EDGE_LOOP ( 'NONE', ( #57, #7, #100, #290 ) ) ;
#29 = EDGE_CURVE ( 'NONE', #6, #246, #85, .T. ) ;
#30 = DATE_AND_TIME ( #80, #202 ) ;
#31 = APPROVAL ( #2, 'NEURÈENÝ' ) ;
#32 = ORIENTED_EDGE ( 'NONE', *, *, #224, .F. ) ;
#33 = AXIS2_PLACEMENT_3D ( 'NONE', #205, #298, #277 ) ;
#34 = DATE_AND_TIME ( #48, #68 ) ;
#35 = EDGE_LOOP ( 'NONE', ( #197, #96 ) ) ;
#36 = VERTEX_POINT ( 'NONE', #155 ) ;
#37 = CARTESIAN_POINT ( 'NONE',  ( -2.600000000000000089, 0.000000000000000000, 3.200000000000008171 ) ) ;
#38 = ORIENTED_EDGE ( 'NONE', *, *, #289, .F. ) ;
#39 = FACE_OUTER_BOUND ( 'NONE', #93, .T. ) ;
#40 = AXIS2_PLACEMENT_3D ( 'NONE', #104, #293, #179 ) ;
#41 = CARTESIAN_POINT ( 'NONE',  ( 0.000000000000000000, 0.000000000000000000, 3.200000000000008171 ) ) ;
#42 = CYLINDRICAL_SURFACE ( 'NONE', #259, 5.000000000000000000 ) ;
#43 = DIRECTION ( 'NONE',  ( 1.000000000000000000, 0.000000000000000000, 0.000000000000000000 ) ) ;
#44 = DIRECTION ( 'NONE',  ( 0.000000000000000000, 0.000000000000000000, 1.000000000000000000 ) ) ;
#45 = VECTOR ( 'NONE', #75, 1000.000000000000000 ) ;
#46 = EDGE_CURVE ( 'NONE', #60, #226, #238, .T. ) ;
#47 = CARTESIAN_POINT ( 'NONE',  ( 2.799999999999999822, 0.000000000000000000, 3.000000000000004441 ) ) ;
#48 = CALENDAR_DATE ( 2022, 7, 7 ) ;
#49 = PERSON_AND_ORGANIZATION_ROLE ( 'design_owner' ) ;
#50 = ORIENTED_EDGE ( 'NONE', *, *, #149, .T. ) ;
#51 =( LENGTH_UNIT ( ) NAMED_UNIT ( * ) SI_UNIT ( .MILLI., .METRE. ) );
#52 = EDGE_LOOP ( 'NONE', ( #156, #50 ) ) ;
#53 = COORDINATED_UNIVERSAL_TIME_OFFSET ( 1, 0, .AHEAD. ) ;
#54 = AXIS2_PLACEMENT_3D ( 'NONE', #223, #181, #12 ) ;
#55 = AXIS2_PLACEMENT_3D ( 'NONE', #137, #69, #18 ) ;
#56 = SHAPE_DEFINITION_REPRESENTATION ( #269, #235 ) ;
#57 = ORIENTED_EDGE ( 'NONE', *, *, #236, .F. ) ;
#58 = ORIENTED_EDGE ( 'NONE', *, *, #14, .T. ) ;
#59 = ORIENTED_EDGE ( 'NONE', *, *, #111, .T. ) ;
#60 = VERTEX_POINT ( 'NONE', #110 ) ;
#61 = ORGANIZATION ( 'NEURÈENÝ', 'NEURÈENÝ', '' ) ;
#62 = CC_DESIGN_PERSON_AND_ORGANIZATION_ASSIGNMENT ( #95, #190, ( #81 ) ) ;
#63 = CARTESIAN_POINT ( 'NONE',  ( 0.000000000000000000, 0.000000000000000000, 3.000000000000000000 ) ) ;
#64 = PRODUCT_RELATED_PRODUCT_CATEGORY ( 'detail', '', ( #193 ) ) ;
#65 = DIRECTION ( 'NONE',  ( -0.000000000000000000, -0.000000000000000000, -1.000000000000000000 ) ) ;
#66 = CARTESIAN_POINT ( 'NONE',  ( 5.000000000000000000, 6.123233995736766282E-16, 0.000000000000000000 ) ) ;
#67 = ADVANCED_FACE ( 'NONE', ( #200, #87 ), #291, .T. ) ;
#68 = LOCAL_TIME ( 12, 17, 50.00000000000000000, #128 ) ;
#69 = DIRECTION ( 'NONE',  ( 1.224646799147353207E-16, 1.000000000000000000, -0.000000000000000000 ) ) ;
#70 = CARTESIAN_POINT ( 'NONE',  ( 0.000000000000000000, 0.000000000000000000, 3.000000000000000000 ) ) ;
#71 = ADVANCED_FACE ( 'NONE', ( #39 ), #228, .T. ) ;
#72 = DIRECTION ( 'NONE',  ( -1.000000000000000000, 0.000000000000000000, 0.000000000000000000 ) ) ;
#73 = EDGE_CURVE ( 'NONE', #129, #86, #161, .T. ) ;
#74 = CIRCLE ( 'NONE', #25, 2.600000000000000089 ) ;
#75 = DIRECTION ( 'NONE',  ( -0.000000000000000000, -0.000000000000000000, -1.000000000000000000 ) ) ;
#76 = COORDINATED_UNIVERSAL_TIME_OFFSET ( 1, 0, .AHEAD. ) ;
#77 = VERTEX_POINT ( 'NONE', #251 ) ;
#78 = CALENDAR_DATE ( 2022, 7, 7 ) ;
#79 = EDGE_CURVE ( 'NONE', #246, #6, #74, .T. ) ;
#80 = CALENDAR_DATE ( 2022, 7, 7 ) ;
#81 = PRODUCT_DEFINITION_FORMATION_WITH_SPECIFIED_SOURCE ( 'LIBOVOLNÝ', '', #193, .NOT_KNOWN. ) ;
#82 = DIRECTION ( 'NONE',  ( 1.000000000000000000, 0.000000000000000000, 0.000000000000000000 ) ) ;
#83 = ORIENTED_EDGE ( 'NONE', *, *, #289, .T. ) ;
#84 = CYLINDRICAL_SURFACE ( 'NONE', #243, 2.600000000000000089 ) ;
#85 = CIRCLE ( 'NONE', #40, 2.600000000000000089 ) ;
#86 = VERTEX_POINT ( 'NONE', #140 ) ;
#87 = FACE_OUTER_BOUND ( 'NONE', #134, .T. ) ;
#88 = DIRECTION ( 'NONE',  ( -0.000000000000000000, -0.000000000000000000, -1.000000000000000000 ) ) ;
#89 = DIRECTION ( 'NONE',  ( -1.000000000000000000, 0.000000000000000000, 0.000000000000000000 ) ) ;
#90 = CARTESIAN_POINT ( 'NONE',  ( 0.000000000000000000, 0.000000000000000000, 203.0000000000000000 ) ) ;
#91 = DIRECTION ( 'NONE',  ( 0.000000000000000000, 0.000000000000000000, 1.000000000000000000 ) ) ;
#92 = LINE ( 'NONE', #261, #116 ) ;
#93 = EDGE_LOOP ( 'NONE', ( #38, #169, #244, #58 ) ) ;
#94 = DIRECTION ( 'NONE',  ( 0.000000000000000000, 0.000000000000000000, 1.000000000000000000 ) ) ;
#95 = PERSON_AND_ORGANIZATION ( #276, #61 ) ;
#96 = ORIENTED_EDGE ( 'NONE', *, *, #122, .F. ) ;
#97 = CIRCLE ( 'NONE', #17, 5.000000000000000000 ) ;
#98 = AXIS2_PLACEMENT_3D ( 'NONE', #90, #91, #260 ) ;
#99 = APPROVAL_PERSON_ORGANIZATION ( #150, #31, #288 ) ;
#100 = ORIENTED_EDGE ( 'NONE', *, *, #79, .T. ) ;
#101 = ADVANCED_FACE ( 'NONE', ( #255 ), #171, .F. ) ;
#102 = MECHANICAL_CONTEXT ( 'NONE', #124, 'mechanical' ) ;
#103 = VERTEX_POINT ( 'NONE', #163 ) ;
#104 = CARTESIAN_POINT ( 'NONE',  ( 0.000000000000000000, 0.000000000000000000, 3.200000000000008171 ) ) ;
#105 = LOCAL_TIME ( 12, 17, 50.00000000000000000, #307 ) ;
#106 = EDGE_LOOP ( 'NONE', ( #249, #263 ) ) ;
#107 = ORIENTED_EDGE ( 'NONE', *, *, #221, .T. ) ;
#108 = CC_DESIGN_DATE_AND_TIME_ASSIGNMENT ( #30, #126, ( #252 ) ) ;
#109 = DIRECTION ( 'NONE',  ( 1.000000000000000000, 0.000000000000000000, 0.000000000000000000 ) ) ;
#110 = CARTESIAN_POINT ( 'NONE',  ( -5.000000000000000000, 0.000000000000000000, 3.000000000000000000 ) ) ;
#111 = EDGE_CURVE ( 'NONE', #226, #60, #157, .T. ) ;
#112 = CARTESIAN_POINT ( 'NONE',  ( 2.600000000000000089, 3.184081677783118191E-16, 203.0000000000000000 ) ) ;
#113 = LINE ( 'NONE', #282, #265 ) ;
#114 = AXIS2_PLACEMENT_3D ( 'NONE', #232, #44, #299 ) ;
#115 = CARTESIAN_POINT ( 'NONE',  ( 0.000000000000000000, 0.000000000000000000, 0.000000000000000000 ) ) ;
#116 = VECTOR ( 'NONE', #142, 1000.000000000000000 ) ;
#117 = FACE_OUTER_BOUND ( 'NONE', #106, .T. ) ;
#118 = APPROVAL ( #170, 'NEURÈENÝ' ) ;
#119 = DIRECTION ( 'NONE',  ( 1.000000000000000000, 0.000000000000000000, 0.000000000000000000 ) ) ;
#120 = CALENDAR_DATE ( 2022, 7, 7 ) ;
#121 = CC_DESIGN_SECURITY_CLASSIFICATION ( #176, ( #81 ) ) ;
#122 = EDGE_CURVE ( 'NONE', #284, #103, #97, .T. ) ;
#123 = PERSON_AND_ORGANIZATION ( #276, #61 ) ;
#124 = APPLICATION_CONTEXT ( 'configuration controlled 3d designs of mechanical parts and assemblies' ) ;
#125 = DIRECTION ( 'NONE',  ( 1.000000000000000000, 0.000000000000000000, 0.000000000000000000 ) ) ;
#126 = DATE_TIME_ROLE ( 'creation_date' ) ;
#127 = AXIS2_PLACEMENT_3D ( 'NONE', #237, #94, #125 ) ;
#128 = COORDINATED_UNIVERSAL_TIME_OFFSET ( 1, 0, .AHEAD. ) ;
#129 = VERTEX_POINT ( 'NONE', #47 ) ;
#130 = ORIENTED_EDGE ( 'NONE', *, *, #245, .F. ) ;
#131 = CIRCLE ( 'NONE', #258, 5.000000000000000000 ) ;
#132 = AXIS2_PLACEMENT_3D ( 'NONE', #280, #257, #43 ) ;
#133 = CARTESIAN_POINT ( 'NONE',  ( 0.000000000000000000, 0.000000000000000000, 0.000000000000000000 ) ) ;
#134 = EDGE_LOOP ( 'NONE', ( #247, #59 ) ) ;
#135 = APPLICATION_CONTEXT ( 'configuration controlled 3d designs of mechanical parts and assemblies' ) ;
#136 = FACE_OUTER_BOUND ( 'NONE', #28, .T. ) ;
#137 = CARTESIAN_POINT ( 'NONE',  ( -2.799999999999999822, 3.429011037612588783E-16, 3.200000000000008171 ) ) ;
#138 =( GEOMETRIC_REPRESENTATION_CONTEXT ( 3 ) GLOBAL_UNCERTAINTY_ASSIGNED_CONTEXT ( ( #225 ) ) GLOBAL_UNIT_ASSIGNED_CONTEXT ( ( #51, #188, #145 ) ) REPRESENTATION_CONTEXT ( 'NONE', 'WORKASPACE' ) );
#139 = CARTESIAN_POINT ( 'NONE',  ( 5.000000000000000000, 6.123233995736766282E-16, 3.000000000000000000 ) ) ;
#140 = CARTESIAN_POINT ( 'NONE',  ( -2.799999999999999822, 3.429011037612589276E-16, 3.000000000000004441 ) ) ;
#141 = FACE_OUTER_BOUND ( 'NONE', #215, .T. ) ;
#142 = DIRECTION ( 'NONE',  ( -0.000000000000000000, -0.000000000000000000, -1.000000000000000000 ) ) ;
#143 = MANIFOLD_SOLID_BREP ( 'Zaoblit1', #218 ) ;
#144 = APPROVAL_DATE_TIME ( #283, #118 ) ;
#145 =( NAMED_UNIT ( * ) SI_UNIT ( $, .STERADIAN. ) SOLID_ANGLE_UNIT ( ) );
#146 = AXIS2_PLACEMENT_3D ( 'NONE', #70, #231, #20 ) ;
#147 = PERSON_AND_ORGANIZATION_ROLE ( 'creator' ) ;
#148 = ORIENTED_EDGE ( 'NONE', *, *, #149, .F. ) ;
#149 = EDGE_CURVE ( 'NONE', #86, #129, #21, .T. ) ;
#150 = PERSON_AND_ORGANIZATION ( #276, #61 ) ;
#151 = DATE_TIME_ROLE ( 'classification_date' ) ;
#152 = CC_DESIGN_APPROVAL ( #294, ( #176 ) ) ;
#153 = APPROVAL_DATE_TIME ( #34, #294 ) ;
#154 = ORIENTED_EDGE ( 'NONE', *, *, #122, .T. ) ;
#155 = CARTESIAN_POINT ( 'NONE',  ( 2.600000000000000089, 3.184081677783118191E-16, 203.0000000000000000 ) ) ;
#156 = ORIENTED_EDGE ( 'NONE', *, *, #73, .T. ) ;
#157 = CIRCLE ( 'NONE', #146, 5.000000000000000000 ) ;
#158 = DIRECTION ( 'NONE',  ( 0.000000000000000000, 0.000000000000000000, 1.000000000000000000 ) ) ;
#159 = DIRECTION ( 'NONE',  ( -0.000000000000000000, -0.000000000000000000, -1.000000000000000000 ) ) ;
#160 = DIRECTION ( 'NONE',  ( 1.000000000000000000, 0.000000000000000000, 0.000000000000000000 ) ) ;
#161 = CIRCLE ( 'NONE', #296, 2.799999999999999822 ) ;
#162 = LINE ( 'NONE', #139, #201 ) ;
#163 = CARTESIAN_POINT ( 'NONE',  ( -5.000000000000000000, 0.000000000000000000, 0.000000000000000000 ) ) ;
#164 = DIRECTION ( 'NONE',  ( 1.000000000000000000, 0.000000000000000000, -0.000000000000000000 ) ) ;
#165 = AXIS2_PLACEMENT_3D ( 'NONE', #16, #203, #297 ) ;
#166 = CYLINDRICAL_SURFACE ( 'NONE', #301, 2.600000000000000089 ) ;
#167 = TOROIDAL_SURFACE ( 'NONE', #253, 2.799999999999999822, 0.2000000000000000111 ) ;
#168 = CARTESIAN_POINT ( 'NONE',  ( 5.000000000000000000, 6.123233995736766282E-16, 3.000000000000000000 ) ) ;
#169 = ORIENTED_EDGE ( 'NONE', *, *, #46, .F. ) ;
#170 = APPROVAL_STATUS ( 'not_yet_approved' ) ;
#171 = TOROIDAL_SURFACE ( 'NONE', #114, 2.799999999999999822, 0.2000000000000000111 ) ;
#172 = ADVANCED_FACE ( 'NONE', ( #187 ), #42, .T. ) ;
#173 = APPROVAL_DATE_TIME ( #240, #31 ) ;
#174 = APPROVAL_STATUS ( 'not_yet_approved' ) ;
#175 = ORIENTED_EDGE ( 'NONE', *, *, #199, .F. ) ;
#176 = SECURITY_CLASSIFICATION ( '', '', #212 ) ;
#177 = DIRECTION ( 'NONE',  ( 1.000000000000000000, 0.000000000000000000, 0.000000000000000000 ) ) ;
#178 = DESIGN_CONTEXT ( 'detailed design', #135, 'design' ) ;
#179 = DIRECTION ( 'NONE',  ( 1.000000000000000000, 0.000000000000000000, 0.000000000000000000 ) ) ;
#180 = CIRCLE ( 'NONE', #1, 2.600000000000000089 ) ;
#181 = DIRECTION ( 'NONE',  ( 0.000000000000000000, 0.000000000000000000, 1.000000000000000000 ) ) ;
#182 = ORIENTED_EDGE ( 'NONE', *, *, #287, .F. ) ;
#183 = DIRECTION ( 'NONE',  ( 0.000000000000000000, 0.000000000000000000, 1.000000000000000000 ) ) ;
#184 = DIRECTION ( 'NONE',  ( 0.000000000000000000, 0.000000000000000000, 1.000000000000000000 ) ) ;
#185 = CARTESIAN_POINT ( 'NONE',  ( 2.600000000000000089, 3.184081677783118191E-16, 3.200000000000008171 ) ) ;
#186 = FACE_OUTER_BOUND ( 'NONE', #198, .T. ) ;
#187 = FACE_OUTER_BOUND ( 'NONE', #306, .T. ) ;
#188 =( NAMED_UNIT ( * ) PLANE_ANGLE_UNIT ( ) SI_UNIT ( $, .RADIAN. ) );
#189 = APPLICATION_PROTOCOL_DEFINITION ( 'international standard', 'config_control_design', 1994, #124 ) ;
#190 = PERSON_AND_ORGANIZATION_ROLE ( 'creator' ) ;
#191 = CIRCLE ( 'NONE', #33, 0.2000000000000000944 ) ;
#192 = DIRECTION ( 'NONE',  ( -0.000000000000000000, -0.000000000000000000, -1.000000000000000000 ) ) ;
#193 = PRODUCT ( '78eb', '78eb', '', ( #102 ) ) ;
#194 = ORIENTED_EDGE ( 'NONE', *, *, #278, .T. ) ;
#195 = DIRECTION ( 'NONE',  ( 0.000000000000000000, 0.000000000000000000, 1.000000000000000000 ) ) ;
#196 = CC_DESIGN_DATE_AND_TIME_ASSIGNMENT ( #266, #151, ( #176 ) ) ;
#197 = ORIENTED_EDGE ( 'NONE', *, *, #14, .F. ) ;
#198 = EDGE_LOOP ( 'NONE', ( #222, #241, #217, #148 ) ) ;
#199 = EDGE_CURVE ( 'NONE', #77, #36, #180, .T. ) ;
#200 = FACE_BOUND ( 'NONE', #52, .T. ) ;
#201 = VECTOR ( 'NONE', #192, 1000.000000000000000 ) ;
#202 = LOCAL_TIME ( 12, 17, 50.00000000000000000, #76 ) ;
#203 = DIRECTION ( 'NONE',  ( -0.000000000000000000, -0.000000000000000000, -1.000000000000000000 ) ) ;
#204 = CC_DESIGN_PERSON_AND_ORGANIZATION_ASSIGNMENT ( #268, #5, ( #176 ) ) ;
#205 = CARTESIAN_POINT ( 'NONE',  ( 2.799999999999999822, 0.000000000000000000, 3.200000000000008171 ) ) ;
#206 = LINE ( 'NONE', #112, #45 ) ;
#207 = CIRCLE ( 'NONE', #98, 2.600000000000000089 ) ;
#208 = DIRECTION ( 'NONE',  ( 1.000000000000000000, 0.000000000000000000, 0.000000000000000000 ) ) ;
#209 = CC_DESIGN_PERSON_AND_ORGANIZATION_ASSIGNMENT ( #285, #220, ( #81 ) ) ;
#210 = DIRECTION ( 'NONE',  ( 1.000000000000000000, 0.000000000000000000, 0.000000000000000000 ) ) ;
#211 = CARTESIAN_POINT ( 'NONE',  ( 0.000000000000000000, 0.000000000000000000, 203.0000000000000000 ) ) ;
#212 = SECURITY_CLASSIFICATION_LEVEL ( 'unclassified' ) ;
#213 = AXIS2_PLACEMENT_3D ( 'NONE', #279, #184, #164 ) ;
#214 = COORDINATED_UNIVERSAL_TIME_OFFSET ( 1, 0, .AHEAD. ) ;
#215 = EDGE_LOOP ( 'NONE', ( #32, #175, #107, #4 ) ) ;
#216 = CALENDAR_DATE ( 2022, 7, 7 ) ;
#217 = ORIENTED_EDGE ( 'NONE', *, *, #287, .T. ) ;
#218 = CLOSED_SHELL ( 'NONE', ( #101, #26, #172, #71, #67, #8, #230, #256, #267 ) ) ;
#219 = ORIENTED_EDGE ( 'NONE', *, *, #73, .F. ) ;
#220 = PERSON_AND_ORGANIZATION_ROLE ( 'design_supplier' ) ;
#221 = EDGE_CURVE ( 'NONE', #77, #6, #113, .T. ) ;
#222 = ORIENTED_EDGE ( 'NONE', *, *, #278, .F. ) ;
#223 = CARTESIAN_POINT ( 'NONE',  ( 0.000000000000000000, 0.000000000000000000, 0.000000000000000000 ) ) ;
#224 = EDGE_CURVE ( 'NONE', #36, #246, #206, .T. ) ;
#225 = UNCERTAINTY_MEASURE_WITH_UNIT (LENGTH_MEASURE( 1.000000000000000082E-05 ), #51, 'distance_accuracy_value', 'NONE');
#226 = VERTEX_POINT ( 'NONE', #168 ) ;
#227 = PLANE ( 'NONE',  #54 ) ;
#228 = CYLINDRICAL_SURFACE ( 'NONE', #165, 5.000000000000000000 ) ;
#229 = PLANE ( 'NONE',  #213 ) ;
#230 = ADVANCED_FACE ( 'NONE', ( #141 ), #166, .T. ) ;
#231 = DIRECTION ( 'NONE',  ( 0.000000000000000000, 0.000000000000000000, 1.000000000000000000 ) ) ;
#232 = CARTESIAN_POINT ( 'NONE',  ( 0.000000000000000000, 0.000000000000000000, 3.200000000000008171 ) ) ;
#233 = CARTESIAN_POINT ( 'NONE',  ( 0.000000000000000000, 0.000000000000000000, 203.0000000000000000 ) ) ;
#234 = CC_DESIGN_APPROVAL ( #118, ( #252 ) ) ;
#235 = ADVANCED_BREP_SHAPE_REPRESENTATION ( '78eb', ( #143, #127 ), #138 ) ;
#236 = EDGE_CURVE ( 'NONE', #36, #77, #207, .T. ) ;
#237 = CARTESIAN_POINT ( 'NONE',  ( 0.000000000000000000, 0.000000000000000000, 0.000000000000000000 ) ) ;
#238 = CIRCLE ( 'NONE', #15, 5.000000000000000000 ) ;
#239 = ORIENTED_EDGE ( 'NONE', *, *, #111, .F. ) ;
#240 = DATE_AND_TIME ( #120, #105 ) ;
#241 = ORIENTED_EDGE ( 'NONE', *, *, #79, .F. ) ;
#242 = APPROVAL_ROLE ( '' ) ;
#243 = AXIS2_PLACEMENT_3D ( 'NONE', #274, #159, #13 ) ;
#244 = ORIENTED_EDGE ( 'NONE', *, *, #245, .T. ) ;
#245 = EDGE_CURVE ( 'NONE', #60, #103, #92, .T. ) ;
#246 = VERTEX_POINT ( 'NONE', #185 ) ;
#247 = ORIENTED_EDGE ( 'NONE', *, *, #46, .T. ) ;
#248 = CC_DESIGN_PERSON_AND_ORGANIZATION_ASSIGNMENT ( #24, #147, ( #252 ) ) ;
#249 = ORIENTED_EDGE ( 'NONE', *, *, #199, .T. ) ;
#250 = DIRECTION ( 'NONE',  ( 1.000000000000000000, 0.000000000000000000, -0.000000000000000000 ) ) ;
#251 = CARTESIAN_POINT ( 'NONE',  ( -2.600000000000000089, 0.000000000000000000, 203.0000000000000000 ) ) ;
#252 = PRODUCT_DEFINITION ( 'NEZNÁMÝ', '', #81, #178 ) ;
#253 = AXIS2_PLACEMENT_3D ( 'NONE', #23, #183, #119 ) ;
#254 = APPROVAL_PERSON_ORGANIZATION ( #264, #294, #242 ) ;
#255 = FACE_OUTER_BOUND ( 'NONE', #271, .T. ) ;
#256 = ADVANCED_FACE ( 'NONE', ( #117 ), #229, .T. ) ;
#257 = DIRECTION ( 'NONE',  ( -0.000000000000000000, -0.000000000000000000, -1.000000000000000000 ) ) ;
#258 = AXIS2_PLACEMENT_3D ( 'NONE', #133, #10, #82 ) ;
#259 = AXIS2_PLACEMENT_3D ( 'NONE', #304, #22, #72 ) ;
#260 = DIRECTION ( 'NONE',  ( 1.000000000000000000, 0.000000000000000000, 0.000000000000000000 ) ) ;
#261 = CARTESIAN_POINT ( 'NONE',  ( -5.000000000000000000, 0.000000000000000000, 3.000000000000000000 ) ) ;
#262 = PERSON_AND_ORGANIZATION ( #276, #61 ) ;
#263 = ORIENTED_EDGE ( 'NONE', *, *, #236, .T. ) ;
#264 = PERSON_AND_ORGANIZATION ( #276, #61 ) ;
#265 = VECTOR ( 'NONE', #19, 1000.000000000000000 ) ;
#266 = DATE_AND_TIME ( #78, #273 ) ;
#267 = ADVANCED_FACE ( 'NONE', ( #186 ), #167, .F. ) ;
#268 = PERSON_AND_ORGANIZATION ( #276, #61 ) ;
#269 = PRODUCT_DEFINITION_SHAPE ( 'NONE', 'NONE',  #252 ) ;
#270 = ORIENTED_EDGE ( 'NONE', *, *, #29, .F. ) ;
#271 = EDGE_LOOP ( 'NONE', ( #270, #194, #219, #182 ) ) ;
#272 = CARTESIAN_POINT ( 'NONE',  ( 0.000000000000000000, 0.000000000000000000, 3.000000000000000000 ) ) ;
#273 = LOCAL_TIME ( 12, 17, 50.00000000000000000, #53 ) ;
#274 = CARTESIAN_POINT ( 'NONE',  ( 0.000000000000000000, 0.000000000000000000, 203.0000000000000000 ) ) ;
#275 = CARTESIAN_POINT ( 'NONE',  ( 0.000000000000000000, 0.000000000000000000, 3.000000000000000000 ) ) ;
#276 = PERSON ( 'NEURÈENÝ', 'NEURÈENÝ', 'NEURÈENÝ', ('NEURÈENÝ'), ('NEURÈENÝ'), ('NEURÈENÝ') ) ;
#277 = DIRECTION ( 'NONE',  ( 0.000000000000000000, 0.000000000000000000, -1.000000000000000000 ) ) ;
#278 = EDGE_CURVE ( 'NONE', #6, #86, #286, .T. ) ;
#279 = CARTESIAN_POINT ( 'NONE',  ( 0.000000000000000000, 0.000000000000000000, 203.0000000000000000 ) ) ;
#280 = CARTESIAN_POINT ( 'NONE',  ( 0.000000000000000000, 0.000000000000000000, 3.000000000000000000 ) ) ;
#281 = CC_DESIGN_APPROVAL ( #31, ( #81 ) ) ;
#282 = CARTESIAN_POINT ( 'NONE',  ( -2.600000000000000089, 0.000000000000000000, 203.0000000000000000 ) ) ;
#283 = DATE_AND_TIME ( #216, #11 ) ;
#284 = VERTEX_POINT ( 'NONE', #66 ) ;
#285 = PERSON_AND_ORGANIZATION ( #276, #61 ) ;
#286 = CIRCLE ( 'NONE', #55, 0.2000000000000000944 ) ;
#287 = EDGE_CURVE ( 'NONE', #246, #129, #191, .T. ) ;
#288 = APPROVAL_ROLE ( '' ) ;
#289 = EDGE_CURVE ( 'NONE', #226, #284, #162, .T. ) ;
#290 = ORIENTED_EDGE ( 'NONE', *, *, #221, .F. ) ;
#291 = PLANE ( 'NONE',  #300 ) ;
#292 = DIRECTION ( 'NONE',  ( 0.000000000000000000, 0.000000000000000000, 1.000000000000000000 ) ) ;
#293 = DIRECTION ( 'NONE',  ( 0.000000000000000000, 0.000000000000000000, 1.000000000000000000 ) ) ;
#294 = APPROVAL ( #174, 'NEURÈENÝ' ) ;
#295 = FACE_OUTER_BOUND ( 'NONE', #35, .T. ) ;
#296 = AXIS2_PLACEMENT_3D ( 'NONE', #275, #65, #160 ) ;
#297 = DIRECTION ( 'NONE',  ( -1.000000000000000000, 0.000000000000000000, 0.000000000000000000 ) ) ;
#298 = DIRECTION ( 'NONE',  ( 0.000000000000000000, -1.000000000000000000, 0.000000000000000000 ) ) ;
#299 = DIRECTION ( 'NONE',  ( 1.000000000000000000, 0.000000000000000000, 0.000000000000000000 ) ) ;
#300 = AXIS2_PLACEMENT_3D ( 'NONE', #63, #292, #250 ) ;
#301 = AXIS2_PLACEMENT_3D ( 'NONE', #233, #88, #89 ) ;
#302 = DIRECTION ( 'NONE',  ( 0.000000000000000000, 0.000000000000000000, 1.000000000000000000 ) ) ;
#303 = DIRECTION ( 'NONE',  ( 0.000000000000000000, 0.000000000000000000, 1.000000000000000000 ) ) ;
#304 = CARTESIAN_POINT ( 'NONE',  ( 0.000000000000000000, 0.000000000000000000, 3.000000000000000000 ) ) ;
#305 = APPROVAL_ROLE ( '' ) ;
#306 = EDGE_LOOP ( 'NONE', ( #239, #83, #154, #130 ) ) ;
#307 = COORDINATED_UNIVERSAL_TIME_OFFSET ( 1, 0, .AHEAD. ) ;
ENDSEC;
END-ISO-10303-21;
