ISO-10303-21;
HEADER;
FILE_DESCRIPTION (( 'STEP AP203' ),
    '1' );
FILE_NAME ('a500.STEP',
    '2022-07-07T09:54:28',
    ( '' ),
    ( '' ),
    'SwSTEP 2.0',
    'SolidWorks 2019',
    '' );
FILE_SCHEMA (( 'CONFIG_CONTROL_DESIGN' ));
ENDSEC;

DATA;
#1 = CIRCLE ( 'NONE', #118, 5.000000000000000888 ) ;
#2 = CALENDAR_DATE ( 2022, 7, 7 ) ;
#3 = TOROIDAL_SURFACE ( 'NONE', #178, 5.200000000000001066, 0.2000000000000000111 ) ;
#4 = APPROVAL_ROLE ( '' ) ;
#5 = DIRECTION ( 'NONE',  ( 0.000000000000000000, 0.000000000000000000, 1.000000000000000000 ) ) ;
#6 = EDGE_CURVE ( 'NONE', #267, #165, #75, .T. ) ;
#7 = CARTESIAN_POINT ( 'NONE',  ( 0.000000000000000000, 0.000000000000000000, 5.199999999999982414 ) ) ;
#8 = DIRECTION ( 'NONE',  ( 1.000000000000000000, 0.000000000000000000, 0.000000000000000000 ) ) ;
#9 = CARTESIAN_POINT ( 'NONE',  ( 0.000000000000000000, 0.000000000000000000, 0.000000000000000000 ) ) ;
#10 = CARTESIAN_POINT ( 'NONE',  ( 0.000000000000000000, 0.000000000000000000, 5.000000000000000000 ) ) ;
#11 = DIRECTION ( 'NONE',  ( -0.000000000000000000, -0.000000000000000000, -1.000000000000000000 ) ) ;
#12 = CALENDAR_DATE ( 2022, 7, 7 ) ;
#13 =( GEOMETRIC_REPRESENTATION_CONTEXT ( 3 ) GLOBAL_UNCERTAINTY_ASSIGNED_CONTEXT ( ( #156 ) ) GLOBAL_UNIT_ASSIGNED_CONTEXT ( ( #164, #79, #146 ) ) REPRESENTATION_CONTEXT ( 'NONE', 'WORKASPACE' ) );
#14 = AXIS2_PLACEMENT_3D ( 'NONE', #123, #243, #262 ) ;
#15 = DIRECTION ( 'NONE',  ( -0.000000000000000000, -0.000000000000000000, -1.000000000000000000 ) ) ;
#16 = PERSON ( 'NEURÈENÝ', 'NEURÈENÝ', 'NEURÈENÝ', ('NEURÈENÝ'), ('NEURÈENÝ'), ('NEURÈENÝ') ) ;
#17 = LINE ( 'NONE', #300, #117 ) ;
#18 = COORDINATED_UNIVERSAL_TIME_OFFSET ( 1, 0, .AHEAD. ) ;
#19 = CC_DESIGN_DATE_AND_TIME_ASSIGNMENT ( #154, #138, ( #98 ) ) ;
#20 = FACE_OUTER_BOUND ( 'NONE', #250, .T. ) ;
#21 = DIRECTION ( 'NONE',  ( 1.000000000000000000, 0.000000000000000000, -0.000000000000000000 ) ) ;
#22 = AXIS2_PLACEMENT_3D ( 'NONE', #221, #199, #269 ) ;
#23 = ADVANCED_FACE ( 'NONE', ( #78 ), #272, .T. ) ;
#24 = DIRECTION ( 'NONE',  ( 1.000000000000000000, 0.000000000000000000, 0.000000000000000000 ) ) ;
#25 = EDGE_CURVE ( 'NONE', #245, #299, #185, .T. ) ;
#26 = CARTESIAN_POINT ( 'NONE',  ( 5.200000000000001066, 0.000000000000000000, 4.999999999999991118 ) ) ;
#27 = DIRECTION ( 'NONE',  ( 1.000000000000000000, 0.000000000000000000, 0.000000000000000000 ) ) ;
#28 = FACE_OUTER_BOUND ( 'NONE', #91, .T. ) ;
#29 = DIRECTION ( 'NONE',  ( 0.000000000000000000, 0.000000000000000000, 1.000000000000000000 ) ) ;
#30 = ORIENTED_EDGE ( 'NONE', *, *, #6, .F. ) ;
#31 = DIRECTION ( 'NONE',  ( 0.000000000000000000, 0.000000000000000000, 1.000000000000000000 ) ) ;
#32 = ORIENTED_EDGE ( 'NONE', *, *, #96, .F. ) ;
#33 = PERSON_AND_ORGANIZATION_ROLE ( 'creator' ) ;
#34 = ORIENTED_EDGE ( 'NONE', *, *, #6, .T. ) ;
#35 = LINE ( 'NONE', #303, #297 ) ;
#36 = EDGE_CURVE ( 'NONE', #247, #165, #108, .T. ) ;
#37 = ORIENTED_EDGE ( 'NONE', *, *, #52, .T. ) ;
#38 = CARTESIAN_POINT ( 'NONE',  ( 8.000000000000000000, 9.797174393178825657E-16, 5.000000000000000000 ) ) ;
#39 = APPROVAL_STATUS ( 'not_yet_approved' ) ;
#40 = LOCAL_TIME ( 11, 54, 28.00000000000000000, #18 ) ;
#41 = DIRECTION ( 'NONE',  ( 0.000000000000000000, 0.000000000000000000, -1.000000000000000000 ) ) ;
#42 = ADVANCED_FACE ( 'NONE', ( #126 ), #62, .F. ) ;
#43 = DIRECTION ( 'NONE',  ( 1.000000000000000000, 0.000000000000000000, 0.000000000000000000 ) ) ;
#44 = DIRECTION ( 'NONE',  ( 0.000000000000000000, -1.000000000000000000, 0.000000000000000000 ) ) ;
#45 = CIRCLE ( 'NONE', #213, 0.1999999999999996503 ) ;
#46 = APPROVAL_PERSON_ORGANIZATION ( #296, #266, #173 ) ;
#47 = ADVANCED_FACE ( 'NONE', ( #102 ), #3, .F. ) ;
#48 = CC_DESIGN_PERSON_AND_ORGANIZATION_ASSIGNMENT ( #229, #231, ( #204 ) ) ;
#49 = PERSON_AND_ORGANIZATION ( #16, #248 ) ;
#50 = AXIS2_PLACEMENT_3D ( 'NONE', #125, #218, #194 ) ;
#51 = DIRECTION ( 'NONE',  ( -0.000000000000000000, -0.000000000000000000, -1.000000000000000000 ) ) ;
#52 = EDGE_CURVE ( 'NONE', #83, #247, #72, .T. ) ;
#53 = DESIGN_CONTEXT ( 'detailed design', #74, 'design' ) ;
#54 = CARTESIAN_POINT ( 'NONE',  ( 0.000000000000000000, 0.000000000000000000, 5.000000000000000000 ) ) ;
#55 = DIRECTION ( 'NONE',  ( -1.000000000000000000, 0.000000000000000000, 0.000000000000000000 ) ) ;
#56 = ORIENTED_EDGE ( 'NONE', *, *, #141, .F. ) ;
#57 = AXIS2_PLACEMENT_3D ( 'NONE', #69, #155, #232 ) ;
#58 = ORIENTED_EDGE ( 'NONE', *, *, #113, .F. ) ;
#59 = ORIENTED_EDGE ( 'NONE', *, *, #216, .T. ) ;
#60 = DATE_AND_TIME ( #12, #40 ) ;
#61 = DIRECTION ( 'NONE',  ( 1.000000000000000000, 0.000000000000000000, 0.000000000000000000 ) ) ;
#62 = TOROIDAL_SURFACE ( 'NONE', #236, 5.200000000000001066, 0.2000000000000000111 ) ;
#63 = DIRECTION ( 'NONE',  ( 1.000000000000000000, 0.000000000000000000, 0.000000000000000000 ) ) ;
#64 = PERSON_AND_ORGANIZATION ( #16, #248 ) ;
#65 = DIRECTION ( 'NONE',  ( 0.000000000000000000, 0.000000000000000000, 1.000000000000000000 ) ) ;
#66 = APPROVAL_STATUS ( 'not_yet_approved' ) ;
#67 = EDGE_CURVE ( 'NONE', #299, #245, #259, .T. ) ;
#68 = APPROVAL_PERSON_ORGANIZATION ( #192, #127, #4 ) ;
#69 = CARTESIAN_POINT ( 'NONE',  ( 0.000000000000000000, 0.000000000000000000, 5.199999999999982414 ) ) ;
#70 = CARTESIAN_POINT ( 'NONE',  ( 0.000000000000000000, 0.000000000000000000, 320.0000000000000000 ) ) ;
#71 = CC_DESIGN_APPROVAL ( #266, ( #204 ) ) ;
#72 = CIRCLE ( 'NONE', #215, 8.000000000000000000 ) ;
#73 = LOCAL_TIME ( 11, 54, 28.00000000000000000, #226 ) ;
#74 = APPLICATION_CONTEXT ( 'configuration controlled 3d designs of mechanical parts and assemblies' ) ;
#75 = CIRCLE ( 'NONE', #122, 8.000000000000000000 ) ;
#76 = MECHANICAL_CONTEXT ( 'NONE', #287, 'mechanical' ) ;
#77 = PLANE ( 'NONE',  #50 ) ;
#78 = FACE_OUTER_BOUND ( 'NONE', #147, .T. ) ;
#79 =( NAMED_UNIT ( * ) PLANE_ANGLE_UNIT ( ) SI_UNIT ( $, .RADIAN. ) );
#80 = EDGE_LOOP ( 'NONE', ( #101, #81, #82, #149 ) ) ;
#81 = ORIENTED_EDGE ( 'NONE', *, *, #136, .F. ) ;
#82 = ORIENTED_EDGE ( 'NONE', *, *, #36, .T. ) ;
#83 = VERTEX_POINT ( 'NONE', #208 ) ;
#84 = EDGE_LOOP ( 'NONE', ( #196, #276, #88, #195 ) ) ;
#85 = ORIENTED_EDGE ( 'NONE', *, *, #113, .T. ) ;
#86 = CIRCLE ( 'NONE', #14, 0.1999999999999996503 ) ;
#87 = ORIENTED_EDGE ( 'NONE', *, *, #67, .T. ) ;
#88 = ORIENTED_EDGE ( 'NONE', *, *, #141, .T. ) ;
#89 = CARTESIAN_POINT ( 'NONE',  ( 0.000000000000000000, 0.000000000000000000, 5.000000000000000000 ) ) ;
#90 = COORDINATED_UNIVERSAL_TIME_OFFSET ( 1, 0, .AHEAD. ) ;
#91 = EDGE_LOOP ( 'NONE', ( #58, #124, #59, #217 ) ) ;
#92 = DIRECTION ( 'NONE',  ( 1.000000000000000000, 0.000000000000000000, 0.000000000000000000 ) ) ;
#93 = CALENDAR_DATE ( 2022, 7, 7 ) ;
#94 = FACE_BOUND ( 'NONE', #202, .T. ) ;
#95 = CARTESIAN_POINT ( 'NONE',  ( 0.000000000000000000, 0.000000000000000000, 320.0000000000000000 ) ) ;
#96 = EDGE_CURVE ( 'NONE', #165, #267, #283, .T. ) ;
#97 = CC_DESIGN_SECURITY_CLASSIFICATION ( #284, ( #204 ) ) ;
#98 = PRODUCT_DEFINITION ( 'NEZNÁMÝ', '', #204, #53 ) ;
#99 = CARTESIAN_POINT ( 'NONE',  ( 0.000000000000000000, 0.000000000000000000, 0.000000000000000000 ) ) ;
#100 = APPROVAL_DATE_TIME ( #290, #127 ) ;
#101 = ORIENTED_EDGE ( 'NONE', *, *, #188, .F. ) ;
#102 = FACE_OUTER_BOUND ( 'NONE', #227, .T. ) ;
#103 = VERTEX_POINT ( 'NONE', #153 ) ;
#104 = ADVANCED_FACE ( 'NONE', ( #225 ), #110, .T. ) ;
#105 = CARTESIAN_POINT ( 'NONE',  ( 5.000000000000000888, 6.123233995736767268E-16, 5.199999999999982414 ) ) ;
#106 = ORIENTED_EDGE ( 'NONE', *, *, #201, .F. ) ;
#107 = APPROVAL_DATE_TIME ( #135, #266 ) ;
#108 = LINE ( 'NONE', #168, #190 ) ;
#109 = ORIENTED_EDGE ( 'NONE', *, *, #222, .F. ) ;
#110 = CYLINDRICAL_SURFACE ( 'NONE', #133, 8.000000000000000000 ) ;
#111 = DIRECTION ( 'NONE',  ( 0.000000000000000000, 0.000000000000000000, 1.000000000000000000 ) ) ;
#112 = SECURITY_CLASSIFICATION_LEVEL ( 'unclassified' ) ;
#113 = EDGE_CURVE ( 'NONE', #103, #130, #152, .T. ) ;
#114 = DIRECTION ( 'NONE',  ( -0.000000000000000000, -0.000000000000000000, -1.000000000000000000 ) ) ;
#115 = SHAPE_DEFINITION_REPRESENTATION ( #258, #163 ) ;
#116 = CARTESIAN_POINT ( 'NONE',  ( -5.000000000000000888, 0.000000000000000000, 320.0000000000000000 ) ) ;
#117 = VECTOR ( 'NONE', #11, 1000.000000000000000 ) ;
#118 = AXIS2_PLACEMENT_3D ( 'NONE', #7, #31, #142 ) ;
#119 = CIRCLE ( 'NONE', #252, 8.000000000000000000 ) ;
#120 = PRODUCT_RELATED_PRODUCT_CATEGORY ( 'detail', '', ( #211 ) ) ;
#121 = APPROVAL_STATUS ( 'not_yet_approved' ) ;
#122 = AXIS2_PLACEMENT_3D ( 'NONE', #9, #29, #8 ) ;
#123 = CARTESIAN_POINT ( 'NONE',  ( -5.200000000000001066, 6.368163355566237368E-16, 5.199999999999982414 ) ) ;
#124 = ORIENTED_EDGE ( 'NONE', *, *, #183, .T. ) ;
#125 = CARTESIAN_POINT ( 'NONE',  ( 0.000000000000000000, 0.000000000000000000, 0.000000000000000000 ) ) ;
#126 = FACE_OUTER_BOUND ( 'NONE', #84, .T. ) ;
#127 = APPROVAL ( #121, 'NEURÈENÝ' ) ;
#128 = APPROVAL_ROLE ( '' ) ;
#129 = ORIENTED_EDGE ( 'NONE', *, *, #36, .F. ) ;
#130 = VERTEX_POINT ( 'NONE', #116 ) ;
#131 = CARTESIAN_POINT ( 'NONE',  ( -8.000000000000000000, 0.000000000000000000, 0.000000000000000000 ) ) ;
#132 = CYLINDRICAL_SURFACE ( 'NONE', #210, 8.000000000000000000 ) ;
#133 = AXIS2_PLACEMENT_3D ( 'NONE', #305, #15, #179 ) ;
#134 = APPROVAL_PERSON_ORGANIZATION ( #302, #176, #128 ) ;
#135 = DATE_AND_TIME ( #93, #166 ) ;
#136 = EDGE_CURVE ( 'NONE', #247, #83, #119, .T. ) ;
#137 = DIRECTION ( 'NONE',  ( -0.000000000000000000, -0.000000000000000000, -1.000000000000000000 ) ) ;
#138 = DATE_TIME_ROLE ( 'creation_date' ) ;
#139 = FACE_OUTER_BOUND ( 'NONE', #220, .T. ) ;
#140 = CARTESIAN_POINT ( 'NONE',  ( 5.200000000000001066, 0.000000000000000000, 5.199999999999982414 ) ) ;
#141 = EDGE_CURVE ( 'NONE', #223, #299, #45, .T. ) ;
#142 = DIRECTION ( 'NONE',  ( 1.000000000000000000, 0.000000000000000000, 0.000000000000000000 ) ) ;
#143 = APPLICATION_PROTOCOL_DEFINITION ( 'international standard', 'config_control_design', 1994, #74 ) ;
#144 = ORIENTED_EDGE ( 'NONE', *, *, #201, .T. ) ;
#145 = VERTEX_POINT ( 'NONE', #233 ) ;
#146 =( NAMED_UNIT ( * ) SI_UNIT ( $, .STERADIAN. ) SOLID_ANGLE_UNIT ( ) );
#147 = EDGE_LOOP ( 'NONE', ( #171, #106, #263, #224 ) ) ;
#148 = CALENDAR_DATE ( 2022, 7, 7 ) ;
#149 = ORIENTED_EDGE ( 'NONE', *, *, #96, .T. ) ;
#150 = DIRECTION ( 'NONE',  ( 0.000000000000000000, 0.000000000000000000, 1.000000000000000000 ) ) ;
#151 = PERSON_AND_ORGANIZATION_ROLE ( 'creator' ) ;
#152 = CIRCLE ( 'NONE', #307, 5.000000000000000888 ) ;
#153 = CARTESIAN_POINT ( 'NONE',  ( 5.000000000000000888, 6.123233995736767268E-16, 320.0000000000000000 ) ) ;
#154 = DATE_AND_TIME ( #197, #73 ) ;
#155 = DIRECTION ( 'NONE',  ( 0.000000000000000000, 0.000000000000000000, 1.000000000000000000 ) ) ;
#156 = UNCERTAINTY_MEASURE_WITH_UNIT (LENGTH_MEASURE( 1.000000000000000082E-05 ), #164, 'distance_accuracy_value', 'NONE');
#157 = ADVANCED_FACE ( 'NONE', ( #139 ), #281, .T. ) ;
#158 = AXIS2_PLACEMENT_3D ( 'NONE', #89, #206, #43 ) ;
#159 = PLANE ( 'NONE',  #289 ) ;
#160 = AXIS2_PLACEMENT_3D ( 'NONE', #230, #209, #92 ) ;
#161 = EDGE_CURVE ( 'NONE', #130, #145, #35, .T. ) ;
#162 = CC_DESIGN_APPROVAL ( #127, ( #98 ) ) ;
#163 = ADVANCED_BREP_SHAPE_REPRESENTATION ( 'a500', ( #239, #270 ), #13 ) ;
#164 =( LENGTH_UNIT ( ) NAMED_UNIT ( * ) SI_UNIT ( .MILLI., .METRE. ) );
#165 = VERTEX_POINT ( 'NONE', #131 ) ;
#166 = LOCAL_TIME ( 11, 54, 28.00000000000000000, #294 ) ;
#167 = DIRECTION ( 'NONE',  ( -0.000000000000000000, -0.000000000000000000, -1.000000000000000000 ) ) ;
#168 = CARTESIAN_POINT ( 'NONE',  ( -8.000000000000000000, 0.000000000000000000, 5.000000000000000000 ) ) ;
#169 = AXIS2_PLACEMENT_3D ( 'NONE', #10, #219, #61 ) ;
#170 = CARTESIAN_POINT ( 'NONE',  ( 8.000000000000000000, 9.797174393178825657E-16, 0.000000000000000000 ) ) ;
#171 = ORIENTED_EDGE ( 'NONE', *, *, #183, .F. ) ;
#172 = ORIENTED_EDGE ( 'NONE', *, *, #188, .T. ) ;
#173 = APPROVAL_ROLE ( '' ) ;
#174 = ORIENTED_EDGE ( 'NONE', *, *, #306, .T. ) ;
#175 = ORIENTED_EDGE ( 'NONE', *, *, #52, .F. ) ;
#176 = APPROVAL ( #66, 'NEURÈENÝ' ) ;
#177 = DIRECTION ( 'NONE',  ( 1.000000000000000000, 0.000000000000000000, 0.000000000000000000 ) ) ;
#178 = AXIS2_PLACEMENT_3D ( 'NONE', #293, #5, #295 ) ;
#179 = DIRECTION ( 'NONE',  ( -1.000000000000000000, 0.000000000000000000, 0.000000000000000000 ) ) ;
#180 = DIRECTION ( 'NONE',  ( -1.000000000000000000, 0.000000000000000000, 0.000000000000000000 ) ) ;
#181 = AXIS2_PLACEMENT_3D ( 'NONE', #273, #277, #63 ) ;
#182 = AXIS2_PLACEMENT_3D ( 'NONE', #198, #167, #55 ) ;
#183 = EDGE_CURVE ( 'NONE', #103, #223, #17, .T. ) ;
#184 = DIRECTION ( 'NONE',  ( 1.000000000000000000, 0.000000000000000000, 0.000000000000000000 ) ) ;
#185 = CIRCLE ( 'NONE', #169, 5.200000000000001066 ) ;
#186 = CC_DESIGN_APPROVAL ( #176, ( #284 ) ) ;
#187 = ADVANCED_FACE ( 'NONE', ( #94, #20 ), #159, .T. ) ;
#188 = EDGE_CURVE ( 'NONE', #83, #267, #280, .T. ) ;
#189 = DIRECTION ( 'NONE',  ( 0.000000000000000000, 0.000000000000000000, 1.000000000000000000 ) ) ;
#190 = VECTOR ( 'NONE', #51, 1000.000000000000000 ) ;
#191 = CYLINDRICAL_SURFACE ( 'NONE', #182, 5.000000000000000888 ) ;
#192 = PERSON_AND_ORGANIZATION ( #16, #248 ) ;
#193 = ORIENTED_EDGE ( 'NONE', *, *, #25, .T. ) ;
#194 = DIRECTION ( 'NONE',  ( 1.000000000000000000, 0.000000000000000000, -0.000000000000000000 ) ) ;
#195 = ORIENTED_EDGE ( 'NONE', *, *, #25, .F. ) ;
#196 = ORIENTED_EDGE ( 'NONE', *, *, #306, .F. ) ;
#197 = CALENDAR_DATE ( 2022, 7, 7 ) ;
#198 = CARTESIAN_POINT ( 'NONE',  ( 0.000000000000000000, 0.000000000000000000, 320.0000000000000000 ) ) ;
#199 = DIRECTION ( 'NONE',  ( -0.000000000000000000, -0.000000000000000000, -1.000000000000000000 ) ) ;
#200 = EDGE_LOOP ( 'NONE', ( #175, #172, #34, #129 ) ) ;
#201 = EDGE_CURVE ( 'NONE', #130, #103, #279, .T. ) ;
#202 = EDGE_LOOP ( 'NONE', ( #87, #193 ) ) ;
#203 = DIRECTION ( 'NONE',  ( 1.000000000000000000, 0.000000000000000000, -0.000000000000000000 ) ) ;
#204 = PRODUCT_DEFINITION_FORMATION_WITH_SPECIFIED_SOURCE ( 'LIBOVOLNÝ', '', #211, .NOT_KNOWN. ) ;
#205 = APPROVAL_DATE_TIME ( #60, #176 ) ;
#206 = DIRECTION ( 'NONE',  ( -0.000000000000000000, -0.000000000000000000, -1.000000000000000000 ) ) ;
#207 = DATE_TIME_ROLE ( 'classification_date' ) ;
#208 = CARTESIAN_POINT ( 'NONE',  ( 8.000000000000000000, 9.797174393178825657E-16, 5.000000000000000000 ) ) ;
#209 = DIRECTION ( 'NONE',  ( 0.000000000000000000, 0.000000000000000000, 1.000000000000000000 ) ) ;
#210 = AXIS2_PLACEMENT_3D ( 'NONE', #228, #114, #180 ) ;
#211 = PRODUCT ( 'a500', 'a500', '', ( #76 ) ) ;
#212 = ADVANCED_FACE ( 'NONE', ( #253 ), #132, .T. ) ;
#213 = AXIS2_PLACEMENT_3D ( 'NONE', #140, #44, #41 ) ;
#214 = COORDINATED_UNIVERSAL_TIME_OFFSET ( 1, 0, .AHEAD. ) ;
#215 = AXIS2_PLACEMENT_3D ( 'NONE', #54, #291, #244 ) ;
#216 = EDGE_CURVE ( 'NONE', #223, #145, #261, .T. ) ;
#217 = ORIENTED_EDGE ( 'NONE', *, *, #161, .F. ) ;
#218 = DIRECTION ( 'NONE',  ( 0.000000000000000000, 0.000000000000000000, 1.000000000000000000 ) ) ;
#219 = DIRECTION ( 'NONE',  ( -0.000000000000000000, -0.000000000000000000, -1.000000000000000000 ) ) ;
#220 = EDGE_LOOP ( 'NONE', ( #144, #85 ) ) ;
#221 = CARTESIAN_POINT ( 'NONE',  ( 0.000000000000000000, 0.000000000000000000, 320.0000000000000000 ) ) ;
#222 = EDGE_CURVE ( 'NONE', #145, #223, #1, .T. ) ;
#223 = VERTEX_POINT ( 'NONE', #105 ) ;
#224 = ORIENTED_EDGE ( 'NONE', *, *, #222, .T. ) ;
#225 = FACE_OUTER_BOUND ( 'NONE', #80, .T. ) ;
#226 = COORDINATED_UNIVERSAL_TIME_OFFSET ( 1, 0, .AHEAD. ) ;
#227 = EDGE_LOOP ( 'NONE', ( #109, #174, #298, #56 ) ) ;
#228 = CARTESIAN_POINT ( 'NONE',  ( 0.000000000000000000, 0.000000000000000000, 5.000000000000000000 ) ) ;
#229 = PERSON_AND_ORGANIZATION ( #16, #248 ) ;
#230 = CARTESIAN_POINT ( 'NONE',  ( 0.000000000000000000, 0.000000000000000000, 0.000000000000000000 ) ) ;
#231 = PERSON_AND_ORGANIZATION_ROLE ( 'design_supplier' ) ;
#232 = DIRECTION ( 'NONE',  ( 1.000000000000000000, 0.000000000000000000, 0.000000000000000000 ) ) ;
#233 = CARTESIAN_POINT ( 'NONE',  ( -5.000000000000000888, 0.000000000000000000, 5.199999999999982414 ) ) ;
#234 = LOCAL_TIME ( 11, 54, 28.00000000000000000, #90 ) ;
#235 = CC_DESIGN_DATE_AND_TIME_ASSIGNMENT ( #275, #207, ( #284 ) ) ;
#236 = AXIS2_PLACEMENT_3D ( 'NONE', #242, #265, #27 ) ;
#237 = VECTOR ( 'NONE', #301, 1000.000000000000000 ) ;
#238 = CC_DESIGN_PERSON_AND_ORGANIZATION_ASSIGNMENT ( #264, #33, ( #98 ) ) ;
#239 = MANIFOLD_SOLID_BREP ( 'Zaoblit1', #274 ) ;
#240 = PERSON_AND_ORGANIZATION_ROLE ( 'design_owner' ) ;
#241 = CARTESIAN_POINT ( 'NONE',  ( -5.200000000000001066, 6.368163355566237368E-16, 4.999999999999991118 ) ) ;
#242 = CARTESIAN_POINT ( 'NONE',  ( 0.000000000000000000, 0.000000000000000000, 5.199999999999982414 ) ) ;
#243 = DIRECTION ( 'NONE',  ( 1.224646799147353207E-16, 1.000000000000000000, -0.000000000000000000 ) ) ;
#244 = DIRECTION ( 'NONE',  ( 1.000000000000000000, 0.000000000000000000, 0.000000000000000000 ) ) ;
#245 = VERTEX_POINT ( 'NONE', #241 ) ;
#246 = CARTESIAN_POINT ( 'NONE',  ( -8.000000000000000000, 0.000000000000000000, 5.000000000000000000 ) ) ;
#247 = VERTEX_POINT ( 'NONE', #246 ) ;
#248 = ORGANIZATION ( 'NEURÈENÝ', 'NEURÈENÝ', '' ) ;
#249 = CC_DESIGN_PERSON_AND_ORGANIZATION_ASSIGNMENT ( #268, #254, ( #284 ) ) ;
#250 = EDGE_LOOP ( 'NONE', ( #271, #37 ) ) ;
#251 = CARTESIAN_POINT ( 'NONE',  ( 0.000000000000000000, 0.000000000000000000, 5.000000000000000000 ) ) ;
#252 = AXIS2_PLACEMENT_3D ( 'NONE', #251, #255, #177 ) ;
#253 = FACE_OUTER_BOUND ( 'NONE', #200, .T. ) ;
#254 = PERSON_AND_ORGANIZATION_ROLE ( 'classification_officer' ) ;
#255 = DIRECTION ( 'NONE',  ( 0.000000000000000000, 0.000000000000000000, 1.000000000000000000 ) ) ;
#256 = CARTESIAN_POINT ( 'NONE',  ( 0.000000000000000000, 0.000000000000000000, 5.000000000000000000 ) ) ;
#257 = AXIS2_PLACEMENT_3D ( 'NONE', #70, #111, #21 ) ;
#258 = PRODUCT_DEFINITION_SHAPE ( 'NONE', 'NONE',  #98 ) ;
#259 = CIRCLE ( 'NONE', #158, 5.200000000000001066 ) ;
#260 = CC_DESIGN_PERSON_AND_ORGANIZATION_ASSIGNMENT ( #49, #240, ( #211 ) ) ;
#261 = CIRCLE ( 'NONE', #57, 5.000000000000000888 ) ;
#262 = DIRECTION ( 'NONE',  ( -1.000000000000000000, 1.224646799147353454E-16, 0.000000000000000000 ) ) ;
#263 = ORIENTED_EDGE ( 'NONE', *, *, #161, .T. ) ;
#264 = PERSON_AND_ORGANIZATION ( #16, #248 ) ;
#265 = DIRECTION ( 'NONE',  ( 0.000000000000000000, 0.000000000000000000, 1.000000000000000000 ) ) ;
#266 = APPROVAL ( #39, 'NEURÈENÝ' ) ;
#267 = VERTEX_POINT ( 'NONE', #170 ) ;
#268 = PERSON_AND_ORGANIZATION ( #16, #248 ) ;
#269 = DIRECTION ( 'NONE',  ( -1.000000000000000000, 0.000000000000000000, 0.000000000000000000 ) ) ;
#270 = AXIS2_PLACEMENT_3D ( 'NONE', #99, #189, #24 ) ;
#271 = ORIENTED_EDGE ( 'NONE', *, *, #136, .T. ) ;
#272 = CYLINDRICAL_SURFACE ( 'NONE', #22, 5.000000000000000888 ) ;
#273 = CARTESIAN_POINT ( 'NONE',  ( 0.000000000000000000, 0.000000000000000000, 320.0000000000000000 ) ) ;
#274 = CLOSED_SHELL ( 'NONE', ( #47, #278, #212, #104, #187, #282, #23, #157, #42 ) ) ;
#275 = DATE_AND_TIME ( #148, #234 ) ;
#276 = ORIENTED_EDGE ( 'NONE', *, *, #216, .F. ) ;
#277 = DIRECTION ( 'NONE',  ( 0.000000000000000000, 0.000000000000000000, 1.000000000000000000 ) ) ;
#278 = ADVANCED_FACE ( 'NONE', ( #28 ), #191, .T. ) ;
#279 = CIRCLE ( 'NONE', #181, 5.000000000000000888 ) ;
#280 = LINE ( 'NONE', #38, #237 ) ;
#281 = PLANE ( 'NONE',  #257 ) ;
#282 = ADVANCED_FACE ( 'NONE', ( #288 ), #77, .F. ) ;
#283 = CIRCLE ( 'NONE', #160, 8.000000000000000000 ) ;
#284 = SECURITY_CLASSIFICATION ( '', '', #112 ) ;
#285 = CC_DESIGN_PERSON_AND_ORGANIZATION_ASSIGNMENT ( #64, #151, ( #204 ) ) ;
#286 = APPLICATION_PROTOCOL_DEFINITION ( 'international standard', 'config_control_design', 1994, #287 ) ;
#287 = APPLICATION_CONTEXT ( 'configuration controlled 3d designs of mechanical parts and assemblies' ) ;
#288 = FACE_OUTER_BOUND ( 'NONE', #292, .T. ) ;
#289 = AXIS2_PLACEMENT_3D ( 'NONE', #256, #65, #203 ) ;
#290 = DATE_AND_TIME ( #2, #304 ) ;
#291 = DIRECTION ( 'NONE',  ( 0.000000000000000000, 0.000000000000000000, 1.000000000000000000 ) ) ;
#292 = EDGE_LOOP ( 'NONE', ( #32, #30 ) ) ;
#293 = CARTESIAN_POINT ( 'NONE',  ( 0.000000000000000000, 0.000000000000000000, 5.199999999999982414 ) ) ;
#294 = COORDINATED_UNIVERSAL_TIME_OFFSET ( 1, 0, .AHEAD. ) ;
#295 = DIRECTION ( 'NONE',  ( 1.000000000000000000, 0.000000000000000000, 0.000000000000000000 ) ) ;
#296 = PERSON_AND_ORGANIZATION ( #16, #248 ) ;
#297 = VECTOR ( 'NONE', #137, 1000.000000000000000 ) ;
#298 = ORIENTED_EDGE ( 'NONE', *, *, #67, .F. ) ;
#299 = VERTEX_POINT ( 'NONE', #26 ) ;
#300 = CARTESIAN_POINT ( 'NONE',  ( 5.000000000000000888, 6.123233995736767268E-16, 320.0000000000000000 ) ) ;
#301 = DIRECTION ( 'NONE',  ( -0.000000000000000000, -0.000000000000000000, -1.000000000000000000 ) ) ;
#302 = PERSON_AND_ORGANIZATION ( #16, #248 ) ;
#303 = CARTESIAN_POINT ( 'NONE',  ( -5.000000000000000888, 0.000000000000000000, 320.0000000000000000 ) ) ;
#304 = LOCAL_TIME ( 11, 54, 28.00000000000000000, #214 ) ;
#305 = CARTESIAN_POINT ( 'NONE',  ( 0.000000000000000000, 0.000000000000000000, 5.000000000000000000 ) ) ;
#306 = EDGE_CURVE ( 'NONE', #145, #245, #86, .T. ) ;
#307 = AXIS2_PLACEMENT_3D ( 'NONE', #95, #150, #184 ) ;
ENDSEC;
END-ISO-10303-21;
