ISO-10303-21;
HEADER;
FILE_DESCRIPTION (( 'STEP AP203' ),
    '1' );
FILE_NAME ('d75a.STEP',
    '2022-07-07T09:37:44',
    ( '' ),
    ( '' ),
    'SwSTEP 2.0',
    'SolidWorks 2019',
    '' );
FILE_SCHEMA (( 'CONFIG_CONTROL_DESIGN' ));
ENDSEC;

DATA;
#1 = PERSON_AND_ORGANIZATION_ROLE ( 'creator' ) ;
#2 = ORIENTED_EDGE ( 'NONE', *, *, #272, .T. ) ;
#3 = AXIS2_PLACEMENT_3D ( 'NONE', #297, #135, #231 ) ;
#4 = LOCAL_TIME ( 11, 37, 44.00000000000000000, #170 ) ;
#5 = EDGE_CURVE ( 'NONE', #166, #243, #82, .T. ) ;
#6 = ORIENTED_EDGE ( 'NONE', *, *, #124, .F. ) ;
#7 = ORIENTED_EDGE ( 'NONE', *, *, #260, .T. ) ;
#8 = PRODUCT_DEFINITION_SHAPE ( 'NONE', 'NONE',  #190 ) ;
#9 = VERTEX_POINT ( 'NONE', #119 ) ;
#10 = DIRECTION ( 'NONE',  ( -1.000000000000000000, 0.000000000000000000, 0.000000000000000000 ) ) ;
#11 = CARTESIAN_POINT ( 'NONE',  ( 0.000000000000000000, 0.000000000000000000, 7.199999999999984190 ) ) ;
#12 = CYLINDRICAL_SURFACE ( 'NONE', #257, 8.000000000000000000 ) ;
#13 = AXIS2_PLACEMENT_3D ( 'NONE', #11, #156, #202 ) ;
#14 = APPROVAL_PERSON_ORGANIZATION ( #71, #61, #165 ) ;
#15 = EDGE_CURVE ( 'NONE', #27, #97, #211, .T. ) ;
#16 = DIRECTION ( 'NONE',  ( 1.000000000000000000, 0.000000000000000000, -0.000000000000000000 ) ) ;
#17 = DESIGN_CONTEXT ( 'detailed design', #213, 'design' ) ;
#18 = DIRECTION ( 'NONE',  ( 1.000000000000000000, 0.000000000000000000, 0.000000000000000000 ) ) ;
#19 = APPLICATION_PROTOCOL_DEFINITION ( 'international standard', 'config_control_design', 1994, #63 ) ;
#20 = CIRCLE ( 'NONE', #160, 11.00000000000000000 ) ;
#21 = PERSON_AND_ORGANIZATION ( #113, #48 ) ;
#22 =( NAMED_UNIT ( * ) SI_UNIT ( $, .STERADIAN. ) SOLID_ANGLE_UNIT ( ) );
#23 =( NAMED_UNIT ( * ) PLANE_ANGLE_UNIT ( ) SI_UNIT ( $, .RADIAN. ) );
#24 = DIRECTION ( 'NONE',  ( 1.000000000000000000, 0.000000000000000000, 0.000000000000000000 ) ) ;
#25 = ADVANCED_BREP_SHAPE_REPRESENTATION ( 'd75a', ( #214, #91 ), #60 ) ;
#26 = PERSON_AND_ORGANIZATION ( #113, #48 ) ;
#27 = VERTEX_POINT ( 'NONE', #188 ) ;
#28 = APPROVAL ( #40, 'NEURÈENÝ' ) ;
#29 = ORIENTED_EDGE ( 'NONE', *, *, #132, .F. ) ;
#30 = CALENDAR_DATE ( 2022, 7, 7 ) ;
#31 = ORIENTED_EDGE ( 'NONE', *, *, #238, .T. ) ;
#32 = CARTESIAN_POINT ( 'NONE',  ( 0.000000000000000000, 0.000000000000000000, 7.000000000000000000 ) ) ;
#33 = VECTOR ( 'NONE', #226, 1000.000000000000000 ) ;
#34 = DIRECTION ( 'NONE',  ( 0.000000000000000000, 0.000000000000000000, 1.000000000000000000 ) ) ;
#35 = CARTESIAN_POINT ( 'NONE',  ( 0.000000000000000000, 0.000000000000000000, 7.199999999999984190 ) ) ;
#36 = DIRECTION ( 'NONE',  ( -1.000000000000000000, 1.224646799147353207E-16, 0.000000000000000000 ) ) ;
#37 = CARTESIAN_POINT ( 'NONE',  ( 11.00000000000000000, 1.347111479062088405E-15, 7.000000000000000000 ) ) ;
#38 = CARTESIAN_POINT ( 'NONE',  ( 0.000000000000000000, 0.000000000000000000, 0.000000000000000000 ) ) ;
#39 = CARTESIAN_POINT ( 'NONE',  ( -11.00000000000000000, 0.000000000000000000, 7.000000000000000000 ) ) ;
#40 = APPROVAL_STATUS ( 'not_yet_approved' ) ;
#41 = CIRCLE ( 'NONE', #70, 11.00000000000000000 ) ;
#42 = APPROVAL_STATUS ( 'not_yet_approved' ) ;
#43 = EDGE_CURVE ( 'NONE', #171, #200, #259, .T. ) ;
#44 = ORIENTED_EDGE ( 'NONE', *, *, #43, .F. ) ;
#45 = CALENDAR_DATE ( 2022, 7, 7 ) ;
#46 = EDGE_LOOP ( 'NONE', ( #173, #100 ) ) ;
#47 = PERSON_AND_ORGANIZATION ( #113, #48 ) ;
#48 = ORGANIZATION ( 'NEURÈENÝ', 'NEURÈENÝ', '' ) ;
#49 = ORIENTED_EDGE ( 'NONE', *, *, #157, .F. ) ;
#50 = PRODUCT_RELATED_PRODUCT_CATEGORY ( 'detail', '', ( #197 ) ) ;
#51 = ORIENTED_EDGE ( 'NONE', *, *, #221, .T. ) ;
#52 = ORIENTED_EDGE ( 'NONE', *, *, #272, .F. ) ;
#53 = CARTESIAN_POINT ( 'NONE',  ( 0.000000000000000000, 0.000000000000000000, 0.000000000000000000 ) ) ;
#54 = VECTOR ( 'NONE', #261, 1000.000000000000000 ) ;
#55 = PRODUCT_DEFINITION_FORMATION_WITH_SPECIFIED_SOURCE ( 'LIBOVOLNÝ', '', #197, .NOT_KNOWN. ) ;
#56 = DIRECTION ( 'NONE',  ( -1.000000000000000000, 0.000000000000000000, 0.000000000000000000 ) ) ;
#57 = ADVANCED_FACE ( 'NONE', ( #79, #278 ), #81, .T. ) ;
#58 = DIRECTION ( 'NONE',  ( -1.000000000000000000, 0.000000000000000000, 0.000000000000000000 ) ) ;
#59 = CARTESIAN_POINT ( 'NONE',  ( 8.000000000000000000, 9.797174393178825657E-16, 807.0000000000000000 ) ) ;
#60 =( GEOMETRIC_REPRESENTATION_CONTEXT ( 3 ) GLOBAL_UNCERTAINTY_ASSIGNED_CONTEXT ( ( #252 ) ) GLOBAL_UNIT_ASSIGNED_CONTEXT ( ( #90, #23, #22 ) ) REPRESENTATION_CONTEXT ( 'NONE', 'WORKASPACE' ) );
#61 = APPROVAL ( #42, 'NEURÈENÝ' ) ;
#62 = DIRECTION ( 'NONE',  ( 0.000000000000000000, 0.000000000000000000, 1.000000000000000000 ) ) ;
#63 = APPLICATION_CONTEXT ( 'configuration controlled 3d designs of mechanical parts and assemblies' ) ;
#64 = CALENDAR_DATE ( 2022, 7, 7 ) ;
#65 = DIRECTION ( 'NONE',  ( 1.000000000000000000, 0.000000000000000000, 0.000000000000000000 ) ) ;
#66 = APPLICATION_PROTOCOL_DEFINITION ( 'international standard', 'config_control_design', 1994, #213 ) ;
#67 = CC_DESIGN_PERSON_AND_ORGANIZATION_ASSIGNMENT ( #26, #98, ( #161 ) ) ;
#68 = PERSON_AND_ORGANIZATION ( #113, #48 ) ;
#69 = CALENDAR_DATE ( 2022, 7, 7 ) ;
#70 = AXIS2_PLACEMENT_3D ( 'NONE', #251, #108, #152 ) ;
#71 = PERSON_AND_ORGANIZATION ( #113, #48 ) ;
#72 = CARTESIAN_POINT ( 'NONE',  ( 0.000000000000000000, 0.000000000000000000, 7.000000000000000000 ) ) ;
#73 = EDGE_LOOP ( 'NONE', ( #216, #223 ) ) ;
#74 = DATE_AND_TIME ( #263, #164 ) ;
#75 = EDGE_LOOP ( 'NONE', ( #285, #144, #44, #52 ) ) ;
#76 = SECURITY_CLASSIFICATION_LEVEL ( 'unclassified' ) ;
#77 = VERTEX_POINT ( 'NONE', #274 ) ;
#78 = ORIENTED_EDGE ( 'NONE', *, *, #221, .F. ) ;
#79 = FACE_BOUND ( 'NONE', #73, .T. ) ;
#80 = ADVANCED_FACE ( 'NONE', ( #227 ), #142, .F. ) ;
#81 = PLANE ( 'NONE',  #253 ) ;
#82 = CIRCLE ( 'NONE', #264, 8.000000000000000000 ) ;
#83 = DIRECTION ( 'NONE',  ( 1.224646799147353207E-16, 1.000000000000000000, -0.000000000000000000 ) ) ;
#84 = CARTESIAN_POINT ( 'NONE',  ( 8.000000000000000000, 9.797174393178825657E-16, 7.199999999999984190 ) ) ;
#85 = DIRECTION ( 'NONE',  ( 1.000000000000000000, 0.000000000000000000, 0.000000000000000000 ) ) ;
#86 = AXIS2_PLACEMENT_3D ( 'NONE', #206, #130, #10 ) ;
#87 = LOCAL_TIME ( 11, 37, 44.00000000000000000, #183 ) ;
#88 = DIRECTION ( 'NONE',  ( 0.000000000000000000, -1.000000000000000000, 0.000000000000000000 ) ) ;
#89 = CARTESIAN_POINT ( 'NONE',  ( 0.000000000000000000, 0.000000000000000000, 0.000000000000000000 ) ) ;
#90 =( LENGTH_UNIT ( ) NAMED_UNIT ( * ) SI_UNIT ( .MILLI., .METRE. ) );
#91 = AXIS2_PLACEMENT_3D ( 'NONE', #38, #282, #136 ) ;
#92 = DIRECTION ( 'NONE',  ( -0.000000000000000000, -0.000000000000000000, -1.000000000000000000 ) ) ;
#93 = DATE_TIME_ROLE ( 'creation_date' ) ;
#94 = DIRECTION ( 'NONE',  ( 1.000000000000000000, 0.000000000000000000, 0.000000000000000000 ) ) ;
#95 = AXIS2_PLACEMENT_3D ( 'NONE', #234, #303, #255 ) ;
#96 = PERSON_AND_ORGANIZATION ( #113, #48 ) ;
#97 = VERTEX_POINT ( 'NONE', #59 ) ;
#98 = PERSON_AND_ORGANIZATION_ROLE ( 'classification_officer' ) ;
#99 = ORIENTED_EDGE ( 'NONE', *, *, #235, .F. ) ;
#100 = ORIENTED_EDGE ( 'NONE', *, *, #124, .T. ) ;
#101 = DIRECTION ( 'NONE',  ( 0.000000000000000000, 0.000000000000000000, 1.000000000000000000 ) ) ;
#102 = ADVANCED_FACE ( 'NONE', ( #107 ), #275, .T. ) ;
#103 = DIRECTION ( 'NONE',  ( 1.000000000000000000, 0.000000000000000000, 0.000000000000000000 ) ) ;
#104 = CARTESIAN_POINT ( 'NONE',  ( 0.000000000000000000, 0.000000000000000000, 807.0000000000000000 ) ) ;
#105 = AXIS2_PLACEMENT_3D ( 'NONE', #205, #154, #18 ) ;
#106 = EDGE_CURVE ( 'NONE', #243, #200, #151, .T. ) ;
#107 = FACE_OUTER_BOUND ( 'NONE', #268, .T. ) ;
#108 = DIRECTION ( 'NONE',  ( 0.000000000000000000, 0.000000000000000000, 1.000000000000000000 ) ) ;
#109 = DIRECTION ( 'NONE',  ( 0.000000000000000000, 0.000000000000000000, 1.000000000000000000 ) ) ;
#110 = AXIS2_PLACEMENT_3D ( 'NONE', #229, #62, #16 ) ;
#111 = LOCAL_TIME ( 11, 37, 44.00000000000000000, #287 ) ;
#112 = EDGE_CURVE ( 'NONE', #270, #244, #41, .T. ) ;
#113 = PERSON ( 'NEURÈENÝ', 'NEURÈENÝ', 'NEURÈENÝ', ('NEURÈENÝ'), ('NEURÈENÝ'), ('NEURÈENÝ') ) ;
#114 = CARTESIAN_POINT ( 'NONE',  ( -11.00000000000000000, 0.000000000000000000, 7.000000000000000000 ) ) ;
#115 = CIRCLE ( 'NONE', #147, 8.000000000000000000 ) ;
#116 = CC_DESIGN_APPROVAL ( #137, ( #55 ) ) ;
#117 = CC_DESIGN_PERSON_AND_ORGANIZATION_ASSIGNMENT ( #47, #191, ( #190 ) ) ;
#118 = DATE_AND_TIME ( #69, #292 ) ;
#119 = CARTESIAN_POINT ( 'NONE',  ( -11.00000000000000000, 0.000000000000000000, 0.000000000000000000 ) ) ;
#120 = ORIENTED_EDGE ( 'NONE', *, *, #260, .F. ) ;
#121 = AXIS2_PLACEMENT_3D ( 'NONE', #210, #88, #186 ) ;
#122 = CC_DESIGN_APPROVAL ( #61, ( #161 ) ) ;
#123 = ORIENTED_EDGE ( 'NONE', *, *, #106, .F. ) ;
#124 = EDGE_CURVE ( 'NONE', #97, #27, #246, .T. ) ;
#125 = ORIENTED_EDGE ( 'NONE', *, *, #235, .T. ) ;
#126 = ORIENTED_EDGE ( 'NONE', *, *, #112, .F. ) ;
#127 = AXIS2_PLACEMENT_3D ( 'NONE', #296, #273, #85 ) ;
#128 = DIRECTION ( 'NONE',  ( -0.000000000000000000, -0.000000000000000000, -1.000000000000000000 ) ) ;
#129 = CC_DESIGN_DATE_AND_TIME_ASSIGNMENT ( #118, #199, ( #161 ) ) ;
#130 = DIRECTION ( 'NONE',  ( -0.000000000000000000, -0.000000000000000000, -1.000000000000000000 ) ) ;
#131 = FACE_OUTER_BOUND ( 'NONE', #75, .T. ) ;
#132 = EDGE_CURVE ( 'NONE', #244, #77, #201, .T. ) ;
#133 = CYLINDRICAL_SURFACE ( 'NONE', #86, 11.00000000000000000 ) ;
#134 = VECTOR ( 'NONE', #92, 1000.000000000000000 ) ;
#135 = DIRECTION ( 'NONE',  ( -0.000000000000000000, -0.000000000000000000, -1.000000000000000000 ) ) ;
#136 = DIRECTION ( 'NONE',  ( 1.000000000000000000, 0.000000000000000000, 0.000000000000000000 ) ) ;
#137 = APPROVAL ( #143, 'NEURÈENÝ' ) ;
#138 = AXIS2_PLACEMENT_3D ( 'NONE', #32, #128, #56 ) ;
#139 = CARTESIAN_POINT ( 'NONE',  ( 11.00000000000000000, 1.347111479062088405E-15, 7.000000000000000000 ) ) ;
#140 = FACE_OUTER_BOUND ( 'NONE', #224, .T. ) ;
#141 = CC_DESIGN_PERSON_AND_ORGANIZATION_ASSIGNMENT ( #218, #1, ( #55 ) ) ;
#142 = TOROIDAL_SURFACE ( 'NONE', #105, 8.200000000000001066, 0.2000000000000000111 ) ;
#143 = APPROVAL_STATUS ( 'not_yet_approved' ) ;
#144 = ORIENTED_EDGE ( 'NONE', *, *, #106, .T. ) ;
#145 = EDGE_LOOP ( 'NONE', ( #196, #149, #125, #120 ) ) ;
#146 = ADVANCED_FACE ( 'NONE', ( #153 ), #133, .T. ) ;
#147 = AXIS2_PLACEMENT_3D ( 'NONE', #35, #178, #245 ) ;
#148 = EDGE_LOOP ( 'NONE', ( #271, #99 ) ) ;
#149 = ORIENTED_EDGE ( 'NONE', *, *, #132, .T. ) ;
#150 = DIRECTION ( 'NONE',  ( 0.000000000000000000, 0.000000000000000000, 1.000000000000000000 ) ) ;
#151 = CIRCLE ( 'NONE', #180, 0.2000000000000005107 ) ;
#152 = DIRECTION ( 'NONE',  ( 1.000000000000000000, 0.000000000000000000, 0.000000000000000000 ) ) ;
#153 = FACE_OUTER_BOUND ( 'NONE', #145, .T. ) ;
#154 = DIRECTION ( 'NONE',  ( 0.000000000000000000, 0.000000000000000000, 1.000000000000000000 ) ) ;
#155 = ADVANCED_FACE ( 'NONE', ( #179 ), #298, .T. ) ;
#156 = DIRECTION ( 'NONE',  ( 0.000000000000000000, 0.000000000000000000, 1.000000000000000000 ) ) ;
#157 = EDGE_CURVE ( 'NONE', #200, #171, #286, .T. ) ;
#158 = CARTESIAN_POINT ( 'NONE',  ( -8.000000000000000000, 0.000000000000000000, 807.0000000000000000 ) ) ;
#159 = DIRECTION ( 'NONE',  ( 0.000000000000000000, 0.000000000000000000, 1.000000000000000000 ) ) ;
#160 = AXIS2_PLACEMENT_3D ( 'NONE', #212, #280, #65 ) ;
#161 = SECURITY_CLASSIFICATION ( '', '', #76 ) ;
#162 = PERSON_AND_ORGANIZATION_ROLE ( 'design_owner' ) ;
#163 = DIRECTION ( 'NONE',  ( 1.000000000000000000, 0.000000000000000000, -0.000000000000000000 ) ) ;
#164 = LOCAL_TIME ( 11, 37, 44.00000000000000000, #242 ) ;
#165 = APPROVAL_ROLE ( '' ) ;
#166 = VERTEX_POINT ( 'NONE', #84 ) ;
#167 = CARTESIAN_POINT ( 'NONE',  ( 0.000000000000000000, 0.000000000000000000, 7.199999999999984190 ) ) ;
#168 = ORIENTED_EDGE ( 'NONE', *, *, #15, .F. ) ;
#169 = AXIS2_PLACEMENT_3D ( 'NONE', #302, #109, #163 ) ;
#170 = COORDINATED_UNIVERSAL_TIME_OFFSET ( 1, 0, .AHEAD. ) ;
#171 = VERTEX_POINT ( 'NONE', #204 ) ;
#172 = EDGE_CURVE ( 'NONE', #9, #77, #281, .T. ) ;
#173 = ORIENTED_EDGE ( 'NONE', *, *, #15, .T. ) ;
#174 = CARTESIAN_POINT ( 'NONE',  ( -8.200000000000001066, 1.004210375300829674E-15, 7.199999999999984190 ) ) ;
#175 = DIRECTION ( 'NONE',  ( 1.000000000000000000, 0.000000000000000000, -0.000000000000000000 ) ) ;
#176 = DIRECTION ( 'NONE',  ( -0.000000000000000000, -0.000000000000000000, -1.000000000000000000 ) ) ;
#177 = EDGE_CURVE ( 'NONE', #243, #166, #115, .T. ) ;
#178 = DIRECTION ( 'NONE',  ( 0.000000000000000000, 0.000000000000000000, 1.000000000000000000 ) ) ;
#179 = FACE_OUTER_BOUND ( 'NONE', #46, .T. ) ;
#180 = AXIS2_PLACEMENT_3D ( 'NONE', #174, #83, #36 ) ;
#181 = CC_DESIGN_SECURITY_CLASSIFICATION ( #161, ( #55 ) ) ;
#182 = CC_DESIGN_DATE_AND_TIME_ASSIGNMENT ( #306, #93, ( #190 ) ) ;
#183 = COORDINATED_UNIVERSAL_TIME_OFFSET ( 1, 0, .AHEAD. ) ;
#184 = LINE ( 'NONE', #158, #228 ) ;
#185 = PLANE ( 'NONE',  #169 ) ;
#186 = DIRECTION ( 'NONE',  ( 0.000000000000000000, 0.000000000000000000, -1.000000000000000000 ) ) ;
#187 = APPROVAL_ROLE ( '' ) ;
#188 = CARTESIAN_POINT ( 'NONE',  ( -8.000000000000000000, 0.000000000000000000, 807.0000000000000000 ) ) ;
#189 = AXIS2_PLACEMENT_3D ( 'NONE', #194, #307, #94 ) ;
#190 = PRODUCT_DEFINITION ( 'NEZNÁMÝ', '', #55, #17 ) ;
#191 = PERSON_AND_ORGANIZATION_ROLE ( 'creator' ) ;
#192 = EDGE_LOOP ( 'NONE', ( #6, #51, #288, #219 ) ) ;
#193 = SHAPE_DEFINITION_REPRESENTATION ( #8, #25 ) ;
#194 = CARTESIAN_POINT ( 'NONE',  ( 0.000000000000000000, 0.000000000000000000, 807.0000000000000000 ) ) ;
#195 = APPROVAL_DATE_TIME ( #74, #137 ) ;
#196 = ORIENTED_EDGE ( 'NONE', *, *, #230, .F. ) ;
#197 = PRODUCT ( 'd75a', 'd75a', '', ( #279 ) ) ;
#198 = AXIS2_PLACEMENT_3D ( 'NONE', #89, #159, #237 ) ;
#199 = DATE_TIME_ROLE ( 'classification_date' ) ;
#200 = VERTEX_POINT ( 'NONE', #276 ) ;
#201 = LINE ( 'NONE', #37, #33 ) ;
#202 = DIRECTION ( 'NONE',  ( 1.000000000000000000, 0.000000000000000000, 0.000000000000000000 ) ) ;
#203 = CLOSED_SHELL ( 'NONE', ( #207, #217, #146, #102, #57, #300, #294, #155, #80 ) ) ;
#204 = CARTESIAN_POINT ( 'NONE',  ( 8.200000000000001066, 0.000000000000000000, 6.999999999999992006 ) ) ;
#205 = CARTESIAN_POINT ( 'NONE',  ( 0.000000000000000000, 0.000000000000000000, 7.199999999999984190 ) ) ;
#206 = CARTESIAN_POINT ( 'NONE',  ( 0.000000000000000000, 0.000000000000000000, 7.000000000000000000 ) ) ;
#207 = ADVANCED_FACE ( 'NONE', ( #131 ), #225, .F. ) ;
#208 = AXIS2_PLACEMENT_3D ( 'NONE', #72, #254, #103 ) ;
#209 = CARTESIAN_POINT ( 'NONE',  ( 8.000000000000000000, 9.797174393178825657E-16, 807.0000000000000000 ) ) ;
#210 = CARTESIAN_POINT ( 'NONE',  ( 8.200000000000001066, 0.000000000000000000, 7.199999999999984190 ) ) ;
#211 = CIRCLE ( 'NONE', #189, 8.000000000000000000 ) ;
#212 = CARTESIAN_POINT ( 'NONE',  ( 0.000000000000000000, 0.000000000000000000, 7.000000000000000000 ) ) ;
#213 = APPLICATION_CONTEXT ( 'configuration controlled 3d designs of mechanical parts and assemblies' ) ;
#214 = MANIFOLD_SOLID_BREP ( 'Zaoblit1', #203 ) ;
#215 = APPROVAL_DATE_TIME ( #256, #28 ) ;
#216 = ORIENTED_EDGE ( 'NONE', *, *, #43, .T. ) ;
#217 = ADVANCED_FACE ( 'NONE', ( #295 ), #12, .T. ) ;
#218 = PERSON_AND_ORGANIZATION ( #113, #48 ) ;
#219 = ORIENTED_EDGE ( 'NONE', *, *, #238, .F. ) ;
#220 = ORIENTED_EDGE ( 'NONE', *, *, #112, .T. ) ;
#221 = EDGE_CURVE ( 'NONE', #97, #166, #305, .T. ) ;
#222 = APPROVAL_DATE_TIME ( #265, #61 ) ;
#223 = ORIENTED_EDGE ( 'NONE', *, *, #157, .T. ) ;
#224 = EDGE_LOOP ( 'NONE', ( #78, #168, #31, #290 ) ) ;
#225 = TOROIDAL_SURFACE ( 'NONE', #13, 8.200000000000001066, 0.2000000000000000111 ) ;
#226 = DIRECTION ( 'NONE',  ( -0.000000000000000000, -0.000000000000000000, -1.000000000000000000 ) ) ;
#227 = FACE_OUTER_BOUND ( 'NONE', #293, .T. ) ;
#228 = VECTOR ( 'NONE', #283, 1000.000000000000000 ) ;
#229 = CARTESIAN_POINT ( 'NONE',  ( 0.000000000000000000, 0.000000000000000000, 807.0000000000000000 ) ) ;
#230 = EDGE_CURVE ( 'NONE', #244, #270, #20, .T. ) ;
#231 = DIRECTION ( 'NONE',  ( 1.000000000000000000, 0.000000000000000000, 0.000000000000000000 ) ) ;
#232 = CARTESIAN_POINT ( 'NONE',  ( -8.000000000000000000, 0.000000000000000000, 7.199999999999984190 ) ) ;
#233 = CIRCLE ( 'NONE', #121, 0.1999999999999996503 ) ;
#234 = CARTESIAN_POINT ( 'NONE',  ( 0.000000000000000000, 0.000000000000000000, 807.0000000000000000 ) ) ;
#235 = EDGE_CURVE ( 'NONE', #77, #9, #241, .T. ) ;
#236 = FACE_OUTER_BOUND ( 'NONE', #148, .T. ) ;
#237 = DIRECTION ( 'NONE',  ( 1.000000000000000000, 0.000000000000000000, 0.000000000000000000 ) ) ;
#238 = EDGE_CURVE ( 'NONE', #27, #243, #184, .T. ) ;
#239 = ORIENTED_EDGE ( 'NONE', *, *, #172, .T. ) ;
#240 = ORIENTED_EDGE ( 'NONE', *, *, #230, .T. ) ;
#241 = CIRCLE ( 'NONE', #198, 11.00000000000000000 ) ;
#242 = COORDINATED_UNIVERSAL_TIME_OFFSET ( 1, 0, .AHEAD. ) ;
#243 = VERTEX_POINT ( 'NONE', #232 ) ;
#244 = VERTEX_POINT ( 'NONE', #139 ) ;
#245 = DIRECTION ( 'NONE',  ( 1.000000000000000000, 0.000000000000000000, 0.000000000000000000 ) ) ;
#246 = CIRCLE ( 'NONE', #127, 8.000000000000000000 ) ;
#247 = APPROVAL_PERSON_ORGANIZATION ( #289, #137, #187 ) ;
#248 = CARTESIAN_POINT ( 'NONE',  ( 0.000000000000000000, 0.000000000000000000, 7.000000000000000000 ) ) ;
#249 = CC_DESIGN_PERSON_AND_ORGANIZATION_ASSIGNMENT ( #21, #162, ( #197 ) ) ;
#250 = DIRECTION ( 'NONE',  ( 1.000000000000000000, 0.000000000000000000, 0.000000000000000000 ) ) ;
#251 = CARTESIAN_POINT ( 'NONE',  ( 0.000000000000000000, 0.000000000000000000, 7.000000000000000000 ) ) ;
#252 = UNCERTAINTY_MEASURE_WITH_UNIT (LENGTH_MEASURE( 1.000000000000000082E-05 ), #90, 'distance_accuracy_value', 'NONE');
#253 = AXIS2_PLACEMENT_3D ( 'NONE', #248, #34, #175 ) ;
#254 = DIRECTION ( 'NONE',  ( -0.000000000000000000, -0.000000000000000000, -1.000000000000000000 ) ) ;
#255 = DIRECTION ( 'NONE',  ( -1.000000000000000000, 0.000000000000000000, 0.000000000000000000 ) ) ;
#256 = DATE_AND_TIME ( #64, #87 ) ;
#257 = AXIS2_PLACEMENT_3D ( 'NONE', #104, #176, #58 ) ;
#258 = CYLINDRICAL_SURFACE ( 'NONE', #95, 8.000000000000000000 ) ;
#259 = CIRCLE ( 'NONE', #208, 8.200000000000001066 ) ;
#260 = EDGE_CURVE ( 'NONE', #270, #9, #299, .T. ) ;
#261 = DIRECTION ( 'NONE',  ( -0.000000000000000000, -0.000000000000000000, -1.000000000000000000 ) ) ;
#262 = CC_DESIGN_PERSON_AND_ORGANIZATION_ASSIGNMENT ( #96, #284, ( #55 ) ) ;
#263 = CALENDAR_DATE ( 2022, 7, 7 ) ;
#264 = AXIS2_PLACEMENT_3D ( 'NONE', #167, #150, #24 ) ;
#265 = DATE_AND_TIME ( #45, #111 ) ;
#266 = COORDINATED_UNIVERSAL_TIME_OFFSET ( 1, 0, .AHEAD. ) ;
#267 = EDGE_LOOP ( 'NONE', ( #220, #240 ) ) ;
#268 = EDGE_LOOP ( 'NONE', ( #29, #126, #7, #239 ) ) ;
#269 = AXIS2_PLACEMENT_3D ( 'NONE', #53, #101, #250 ) ;
#270 = VERTEX_POINT ( 'NONE', #39 ) ;
#271 = ORIENTED_EDGE ( 'NONE', *, *, #172, .F. ) ;
#272 = EDGE_CURVE ( 'NONE', #166, #171, #233, .T. ) ;
#273 = DIRECTION ( 'NONE',  ( 0.000000000000000000, 0.000000000000000000, 1.000000000000000000 ) ) ;
#274 = CARTESIAN_POINT ( 'NONE',  ( 11.00000000000000000, 1.347111479062088405E-15, 0.000000000000000000 ) ) ;
#275 = CYLINDRICAL_SURFACE ( 'NONE', #138, 11.00000000000000000 ) ;
#276 = CARTESIAN_POINT ( 'NONE',  ( -8.200000000000001066, 1.004210375300829674E-15, 6.999999999999992006 ) ) ;
#277 = APPROVAL_PERSON_ORGANIZATION ( #68, #28, #301 ) ;
#278 = FACE_OUTER_BOUND ( 'NONE', #267, .T. ) ;
#279 = MECHANICAL_CONTEXT ( 'NONE', #63, 'mechanical' ) ;
#280 = DIRECTION ( 'NONE',  ( 0.000000000000000000, 0.000000000000000000, 1.000000000000000000 ) ) ;
#281 = CIRCLE ( 'NONE', #269, 11.00000000000000000 ) ;
#282 = DIRECTION ( 'NONE',  ( 0.000000000000000000, 0.000000000000000000, 1.000000000000000000 ) ) ;
#283 = DIRECTION ( 'NONE',  ( -0.000000000000000000, -0.000000000000000000, -1.000000000000000000 ) ) ;
#284 = PERSON_AND_ORGANIZATION_ROLE ( 'design_supplier' ) ;
#285 = ORIENTED_EDGE ( 'NONE', *, *, #177, .F. ) ;
#286 = CIRCLE ( 'NONE', #3, 8.200000000000001066 ) ;
#287 = COORDINATED_UNIVERSAL_TIME_OFFSET ( 1, 0, .AHEAD. ) ;
#288 = ORIENTED_EDGE ( 'NONE', *, *, #5, .T. ) ;
#289 = PERSON_AND_ORGANIZATION ( #113, #48 ) ;
#290 = ORIENTED_EDGE ( 'NONE', *, *, #177, .T. ) ;
#291 = ORIENTED_EDGE ( 'NONE', *, *, #5, .F. ) ;
#292 = LOCAL_TIME ( 11, 37, 44.00000000000000000, #266 ) ;
#293 = EDGE_LOOP ( 'NONE', ( #123, #291, #2, #49 ) ) ;
#294 = ADVANCED_FACE ( 'NONE', ( #140 ), #258, .T. ) ;
#295 = FACE_OUTER_BOUND ( 'NONE', #192, .T. ) ;
#296 = CARTESIAN_POINT ( 'NONE',  ( 0.000000000000000000, 0.000000000000000000, 807.0000000000000000 ) ) ;
#297 = CARTESIAN_POINT ( 'NONE',  ( 0.000000000000000000, 0.000000000000000000, 7.000000000000000000 ) ) ;
#298 = PLANE ( 'NONE',  #110 ) ;
#299 = LINE ( 'NONE', #114, #54 ) ;
#300 = ADVANCED_FACE ( 'NONE', ( #236 ), #185, .F. ) ;
#301 = APPROVAL_ROLE ( '' ) ;
#302 = CARTESIAN_POINT ( 'NONE',  ( 0.000000000000000000, 0.000000000000000000, 0.000000000000000000 ) ) ;
#303 = DIRECTION ( 'NONE',  ( -0.000000000000000000, -0.000000000000000000, -1.000000000000000000 ) ) ;
#304 = CC_DESIGN_APPROVAL ( #28, ( #190 ) ) ;
#305 = LINE ( 'NONE', #209, #134 ) ;
#306 = DATE_AND_TIME ( #30, #4 ) ;
#307 = DIRECTION ( 'NONE',  ( 0.000000000000000000, 0.000000000000000000, 1.000000000000000000 ) ) ;
ENDSEC;
END-ISO-10303-21;
