ISO-10303-21;
HEADER;
FILE_DESCRIPTION (( 'STEP AP203' ),
    '1' );
FILE_NAME ('b3b9.STEP',
    '2022-07-07T10:36:31',
    ( '' ),
    ( '' ),
    'SwSTEP 2.0',
    'SolidWorks 2019',
    '' );
FILE_SCHEMA (( 'CONFIG_CONTROL_DESIGN' ));
ENDSEC;

DATA;
#1 = DIRECTION ( 'NONE',  ( 1.000000000000000000, 0.000000000000000000, 0.000000000000000000 ) ) ;
#2 = AXIS2_PLACEMENT_3D ( 'NONE', #116, #93, #206 ) ;
#3 = APPROVAL_PERSON_ORGANIZATION ( #181, #46, #236 ) ;
#4 = DIRECTION ( 'NONE',  ( 0.000000000000000000, 0.000000000000000000, 1.000000000000000000 ) ) ;
#5 = AXIS2_PLACEMENT_3D ( 'NONE', #266, #30, #121 ) ;
#6 = VECTOR ( 'NONE', #173, 1000.000000000000000 ) ;
#7 = CC_DESIGN_DATE_AND_TIME_ASSIGNMENT ( #284, #301, ( #138 ) ) ;
#8 = CARTESIAN_POINT ( 'NONE',  ( 2.000000000000000000, 2.449293598294706414E-16, 1.500000000000000000 ) ) ;
#9 = FACE_OUTER_BOUND ( 'NONE', #167, .T. ) ;
#10 = CARTESIAN_POINT ( 'NONE',  ( 0.000000000000000000, 0.000000000000000000, 1.700000000000007061 ) ) ;
#11 = ADVANCED_FACE ( 'NONE', ( #240 ), #190, .T. ) ;
#12 = DIRECTION ( 'NONE',  ( -1.000000000000000000, 0.000000000000000000, 0.000000000000000000 ) ) ;
#13 = APPLICATION_CONTEXT ( 'configuration controlled 3d designs of mechanical parts and assemblies' ) ;
#14 = PLANE ( 'NONE',  #187 ) ;
#15 = CC_DESIGN_PERSON_AND_ORGANIZATION_ASSIGNMENT ( #255, #296, ( #119 ) ) ;
#16 = CYLINDRICAL_SURFACE ( 'NONE', #300, 2.000000000000000000 ) ;
#17 = ADVANCED_FACE ( 'NONE', ( #193 ), #72, .T. ) ;
#18 = CARTESIAN_POINT ( 'NONE',  ( -0.9499999999999999556, 0.000000000000000000, 161.5000000000000000 ) ) ;
#19 = PERSON_AND_ORGANIZATION ( #98, #151 ) ;
#20 = APPROVAL_PERSON_ORGANIZATION ( #68, #191, #298 ) ;
#21 = CIRCLE ( 'NONE', #88, 2.000000000000000000 ) ;
#22 = ORIENTED_EDGE ( 'NONE', *, *, #184, .T. ) ;
#23 = CALENDAR_DATE ( 2022, 7, 7 ) ;
#24 = ORIENTED_EDGE ( 'NONE', *, *, #163, .T. ) ;
#25 = PERSON_AND_ORGANIZATION_ROLE ( 'creator' ) ;
#26 = ORIENTED_EDGE ( 'NONE', *, *, #126, .F. ) ;
#27 = DIRECTION ( 'NONE',  ( 0.000000000000000000, 0.000000000000000000, 1.000000000000000000 ) ) ;
#28 = DIRECTION ( 'NONE',  ( -0.000000000000000000, -0.000000000000000000, -1.000000000000000000 ) ) ;
#29 = ORIENTED_EDGE ( 'NONE', *, *, #56, .T. ) ;
#30 = DIRECTION ( 'NONE',  ( -0.000000000000000000, -0.000000000000000000, -1.000000000000000000 ) ) ;
#31 = DIRECTION ( 'NONE',  ( 1.000000000000000000, 0.000000000000000000, 0.000000000000000000 ) ) ;
#32 = CARTESIAN_POINT ( 'NONE',  ( 0.000000000000000000, 0.000000000000000000, 1.500000000000000000 ) ) ;
#33 = DIRECTION ( 'NONE',  ( 0.000000000000000000, 0.000000000000000000, 1.000000000000000000 ) ) ;
#34 = EDGE_CURVE ( 'NONE', #257, #307, #165, .T. ) ;
#35 = DIRECTION ( 'NONE',  ( 0.000000000000000000, 0.000000000000000000, -1.000000000000000000 ) ) ;
#36 = APPLICATION_CONTEXT ( 'configuration controlled 3d designs of mechanical parts and assemblies' ) ;
#37 = CARTESIAN_POINT ( 'NONE',  ( 1.149999999999999911, 0.000000000000000000, 1.500000000000003553 ) ) ;
#38 = VECTOR ( 'NONE', #200, 1000.000000000000000 ) ;
#39 = CYLINDRICAL_SURFACE ( 'NONE', #238, 0.9499999999999999556 ) ;
#40 =( NAMED_UNIT ( * ) PLANE_ANGLE_UNIT ( ) SI_UNIT ( $, .RADIAN. ) );
#41 = APPROVAL_PERSON_ORGANIZATION ( #182, #252, #139 ) ;
#42 = CIRCLE ( 'NONE', #122, 0.2000000000000000944 ) ;
#43 = ORIENTED_EDGE ( 'NONE', *, *, #249, .F. ) ;
#44 = APPROVAL_DATE_TIME ( #203, #191 ) ;
#45 = EDGE_LOOP ( 'NONE', ( #104, #233 ) ) ;
#46 = APPROVAL ( #69, 'NEURÈENÝ' ) ;
#47 = EDGE_LOOP ( 'NONE', ( #267, #144, #260, #51 ) ) ;
#48 = DIRECTION ( 'NONE',  ( 0.000000000000000000, 0.000000000000000000, 1.000000000000000000 ) ) ;
#49 = TOROIDAL_SURFACE ( 'NONE', #178, 1.149999999999999911, 0.2000000000000000111 ) ;
#50 = VERTEX_POINT ( 'NONE', #243 ) ;
#51 = ORIENTED_EDGE ( 'NONE', *, *, #231, .F. ) ;
#52 = CARTESIAN_POINT ( 'NONE',  ( 0.000000000000000000, 0.000000000000000000, 1.500000000000000000 ) ) ;
#53 = CIRCLE ( 'NONE', #128, 1.149999999999999911 ) ;
#54 = CC_DESIGN_DATE_AND_TIME_ASSIGNMENT ( #183, #143, ( #305 ) ) ;
#55 = ORIENTED_EDGE ( 'NONE', *, *, #184, .F. ) ;
#56 = EDGE_CURVE ( 'NONE', #290, #269, #53, .T. ) ;
#57 = CARTESIAN_POINT ( 'NONE',  ( 0.000000000000000000, 0.000000000000000000, 1.700000000000007061 ) ) ;
#58 = CARTESIAN_POINT ( 'NONE',  ( 2.000000000000000000, 2.449293598294706414E-16, 0.000000000000000000 ) ) ;
#59 = CC_DESIGN_APPROVAL ( #252, ( #305 ) ) ;
#60 = DIRECTION ( 'NONE',  ( 0.000000000000000000, -1.000000000000000000, 0.000000000000000000 ) ) ;
#61 = CC_DESIGN_PERSON_AND_ORGANIZATION_ASSIGNMENT ( #96, #137, ( #138 ) ) ;
#62 = EDGE_CURVE ( 'NONE', #269, #290, #216, .T. ) ;
#63 = DIRECTION ( 'NONE',  ( -0.000000000000000000, -0.000000000000000000, -1.000000000000000000 ) ) ;
#64 = DIRECTION ( 'NONE',  ( 1.000000000000000000, 0.000000000000000000, 0.000000000000000000 ) ) ;
#65 = CIRCLE ( 'NONE', #221, 0.9499999999999999556 ) ;
#66 = COORDINATED_UNIVERSAL_TIME_OFFSET ( 1, 0, .AHEAD. ) ;
#67 = APPROVAL_DATE_TIME ( #279, #46 ) ;
#68 = PERSON_AND_ORGANIZATION ( #98, #151 ) ;
#69 = APPROVAL_STATUS ( 'not_yet_approved' ) ;
#70 = ADVANCED_FACE ( 'NONE', ( #106, #188 ), #214, .T. ) ;
#71 = ORIENTED_EDGE ( 'NONE', *, *, #62, .F. ) ;
#72 = CYLINDRICAL_SURFACE ( 'NONE', #274, 2.000000000000000000 ) ;
#73 = VECTOR ( 'NONE', #148, 1000.000000000000000 ) ;
#74 = ORIENTED_EDGE ( 'NONE', *, *, #34, .F. ) ;
#75 = EDGE_CURVE ( 'NONE', #303, #170, #103, .T. ) ;
#76 = ORIENTED_EDGE ( 'NONE', *, *, #126, .T. ) ;
#77 = CARTESIAN_POINT ( 'NONE',  ( 0.000000000000000000, 0.000000000000000000, 1.500000000000000000 ) ) ;
#78 = AXIS2_PLACEMENT_3D ( 'NONE', #271, #175, #295 ) ;
#79 = DIRECTION ( 'NONE',  ( 1.000000000000000000, 0.000000000000000000, 0.000000000000000000 ) ) ;
#80 = LINE ( 'NONE', #18, #6 ) ;
#81 = CC_DESIGN_APPROVAL ( #46, ( #138 ) ) ;
#82 = CIRCLE ( 'NONE', #94, 2.000000000000000000 ) ;
#83 = CIRCLE ( 'NONE', #261, 0.2000000000000000944 ) ;
#84 = CARTESIAN_POINT ( 'NONE',  ( 1.149999999999999911, 0.000000000000000000, 1.700000000000007061 ) ) ;
#85 = MANIFOLD_SOLID_BREP ( 'Zaoblit1', #286 ) ;
#86 = FACE_OUTER_BOUND ( 'NONE', #100, .T. ) ;
#87 =( LENGTH_UNIT ( ) NAMED_UNIT ( * ) SI_UNIT ( .MILLI., .METRE. ) );
#88 = AXIS2_PLACEMENT_3D ( 'NONE', #293, #253, #79 ) ;
#89 = AXIS2_PLACEMENT_3D ( 'NONE', #189, #218, #125 ) ;
#90 = CIRCLE ( 'NONE', #78, 2.000000000000000000 ) ;
#91 = ORIENTED_EDGE ( 'NONE', *, *, #129, .T. ) ;
#92 = CALENDAR_DATE ( 2022, 7, 7 ) ;
#93 = DIRECTION ( 'NONE',  ( 0.000000000000000000, 0.000000000000000000, 1.000000000000000000 ) ) ;
#94 = AXIS2_PLACEMENT_3D ( 'NONE', #239, #120, #196 ) ;
#95 = DESIGN_CONTEXT ( 'detailed design', #36, 'design' ) ;
#96 = PERSON_AND_ORGANIZATION ( #98, #151 ) ;
#97 = ORIENTED_EDGE ( 'NONE', *, *, #174, .T. ) ;
#98 = PERSON ( 'NEURÈENÝ', 'NEURÈENÝ', 'NEURÈENÝ', ('NEURÈENÝ'), ('NEURÈENÝ'), ('NEURÈENÝ') ) ;
#99 = ADVANCED_FACE ( 'NONE', ( #9 ), #210, .F. ) ;
#100 = EDGE_LOOP ( 'NONE', ( #26, #288, #204, #43 ) ) ;
#101 = PRODUCT_DEFINITION_FORMATION_WITH_SPECIFIED_SOURCE ( 'LIBOVOLNÝ', '', #119, .NOT_KNOWN. ) ;
#102 = ORIENTED_EDGE ( 'NONE', *, *, #174, .F. ) ;
#103 = LINE ( 'NONE', #168, #199 ) ;
#104 = ORIENTED_EDGE ( 'NONE', *, *, #201, .T. ) ;
#105 = ADVANCED_BREP_SHAPE_REPRESENTATION ( 'b3b9', ( #85, #2 ), #246 ) ;
#106 = FACE_BOUND ( 'NONE', #289, .T. ) ;
#107 = CARTESIAN_POINT ( 'NONE',  ( 0.9499999999999999556, 1.163414459189985682E-16, 161.5000000000000000 ) ) ;
#108 = EDGE_CURVE ( 'NONE', #303, #287, #283, .T. ) ;
#109 = DIRECTION ( 'NONE',  ( 0.000000000000000000, 0.000000000000000000, 1.000000000000000000 ) ) ;
#110 = CARTESIAN_POINT ( 'NONE',  ( 0.000000000000000000, 0.000000000000000000, 0.000000000000000000 ) ) ;
#111 = DIRECTION ( 'NONE',  ( -1.000000000000000000, 0.000000000000000000, 0.000000000000000000 ) ) ;
#112 = FACE_OUTER_BOUND ( 'NONE', #47, .T. ) ;
#113 = APPLICATION_PROTOCOL_DEFINITION ( 'international standard', 'config_control_design', 1994, #13 ) ;
#114 = EDGE_LOOP ( 'NONE', ( #280, #136, #213, #76 ) ) ;
#115 = ORIENTED_EDGE ( 'NONE', *, *, #158, .F. ) ;
#116 = CARTESIAN_POINT ( 'NONE',  ( 0.000000000000000000, 0.000000000000000000, 0.000000000000000000 ) ) ;
#117 = CALENDAR_DATE ( 2022, 7, 7 ) ;
#118 = COORDINATED_UNIVERSAL_TIME_OFFSET ( 1, 0, .AHEAD. ) ;
#119 = PRODUCT ( 'b3b9', 'b3b9', '', ( #180 ) ) ;
#120 = DIRECTION ( 'NONE',  ( 0.000000000000000000, 0.000000000000000000, 1.000000000000000000 ) ) ;
#121 = DIRECTION ( 'NONE',  ( 1.000000000000000000, 0.000000000000000000, 0.000000000000000000 ) ) ;
#122 = AXIS2_PLACEMENT_3D ( 'NONE', #272, #198, #153 ) ;
#123 = ORIENTED_EDGE ( 'NONE', *, *, #62, .T. ) ;
#124 = CARTESIAN_POINT ( 'NONE',  ( 0.000000000000000000, 0.000000000000000000, 1.500000000000000000 ) ) ;
#125 = DIRECTION ( 'NONE',  ( 1.000000000000000000, 0.000000000000000000, -0.000000000000000000 ) ) ;
#126 = EDGE_CURVE ( 'NONE', #162, #170, #247, .T. ) ;
#127 = FACE_OUTER_BOUND ( 'NONE', #207, .T. ) ;
#128 = AXIS2_PLACEMENT_3D ( 'NONE', #77, #217, #1 ) ;
#129 = EDGE_CURVE ( 'NONE', #307, #50, #82, .T. ) ;
#130 = CARTESIAN_POINT ( 'NONE',  ( 0.9499999999999999556, 1.163414459189985682E-16, 1.700000000000007061 ) ) ;
#131 = CC_DESIGN_PERSON_AND_ORGANIZATION_ASSIGNMENT ( #208, #264, ( #101 ) ) ;
#132 = CARTESIAN_POINT ( 'NONE',  ( -2.000000000000000000, 0.000000000000000000, 1.500000000000000000 ) ) ;
#133 = CARTESIAN_POINT ( 'NONE',  ( 0.000000000000000000, 0.000000000000000000, 1.700000000000007061 ) ) ;
#134 = DIRECTION ( 'NONE',  ( -1.000000000000000000, 0.000000000000000000, 0.000000000000000000 ) ) ;
#135 = COORDINATED_UNIVERSAL_TIME_OFFSET ( 1, 0, .AHEAD. ) ;
#136 = ORIENTED_EDGE ( 'NONE', *, *, #201, .F. ) ;
#137 = PERSON_AND_ORGANIZATION_ROLE ( 'classification_officer' ) ;
#138 = SECURITY_CLASSIFICATION ( '', '', #140 ) ;
#139 = APPROVAL_ROLE ( '' ) ;
#140 = SECURITY_CLASSIFICATION_LEVEL ( 'unclassified' ) ;
#141 = ORIENTED_EDGE ( 'NONE', *, *, #163, .F. ) ;
#142 = CC_DESIGN_PERSON_AND_ORGANIZATION_ASSIGNMENT ( #177, #25, ( #101 ) ) ;
#143 = DATE_TIME_ROLE ( 'creation_date' ) ;
#144 = ORIENTED_EDGE ( 'NONE', *, *, #75, .T. ) ;
#145 = DIRECTION ( 'NONE',  ( 1.000000000000000000, 0.000000000000000000, 0.000000000000000000 ) ) ;
#146 = EDGE_LOOP ( 'NONE', ( #237, #22 ) ) ;
#147 = CARTESIAN_POINT ( 'NONE',  ( 0.000000000000000000, 0.000000000000000000, 1.700000000000007061 ) ) ;
#148 = DIRECTION ( 'NONE',  ( -0.000000000000000000, -0.000000000000000000, -1.000000000000000000 ) ) ;
#149 = DIRECTION ( 'NONE',  ( 1.000000000000000000, 0.000000000000000000, -0.000000000000000000 ) ) ;
#150 = DIRECTION ( 'NONE',  ( 0.000000000000000000, 0.000000000000000000, 1.000000000000000000 ) ) ;
#151 = ORGANIZATION ( 'NEURÈENÝ', 'NEURÈENÝ', '' ) ;
#152 = LOCAL_TIME ( 12, 36, 31.00000000000000000, #135 ) ;
#153 = DIRECTION ( 'NONE',  ( -1.000000000000000000, 1.224646799147351975E-16, 0.000000000000000000 ) ) ;
#154 = CARTESIAN_POINT ( 'NONE',  ( 0.000000000000000000, 0.000000000000000000, 161.5000000000000000 ) ) ;
#155 = CARTESIAN_POINT ( 'NONE',  ( -2.000000000000000000, 0.000000000000000000, 1.500000000000000000 ) ) ;
#156 = DIRECTION ( 'NONE',  ( 1.000000000000000000, 0.000000000000000000, 0.000000000000000000 ) ) ;
#157 = COORDINATED_UNIVERSAL_TIME_OFFSET ( 1, 0, .AHEAD. ) ;
#158 = EDGE_CURVE ( 'NONE', #162, #269, #42, .T. ) ;
#159 = ORIENTED_EDGE ( 'NONE', *, *, #249, .T. ) ;
#160 = APPROVAL_STATUS ( 'not_yet_approved' ) ;
#161 = DATE_AND_TIME ( #117, #152 ) ;
#162 = VERTEX_POINT ( 'NONE', #294 ) ;
#163 = EDGE_CURVE ( 'NONE', #50, #307, #270, .T. ) ;
#164 = CC_DESIGN_SECURITY_CLASSIFICATION ( #138, ( #101 ) ) ;
#165 = LINE ( 'NONE', #8, #73 ) ;
#166 = AXIS2_PLACEMENT_3D ( 'NONE', #244, #27, #219 ) ;
#167 = EDGE_LOOP ( 'NONE', ( #115, #209, #159, #71 ) ) ;
#168 = CARTESIAN_POINT ( 'NONE',  ( 0.9499999999999999556, 1.163414459189985682E-16, 161.5000000000000000 ) ) ;
#169 = ORIENTED_EDGE ( 'NONE', *, *, #129, .F. ) ;
#170 = VERTEX_POINT ( 'NONE', #130 ) ;
#171 = ADVANCED_FACE ( 'NONE', ( #222 ), #16, .T. ) ;
#172 = DIRECTION ( 'NONE',  ( -0.000000000000000000, -0.000000000000000000, -1.000000000000000000 ) ) ;
#173 = DIRECTION ( 'NONE',  ( -0.000000000000000000, -0.000000000000000000, -1.000000000000000000 ) ) ;
#174 = EDGE_CURVE ( 'NONE', #186, #50, #223, .T. ) ;
#175 = DIRECTION ( 'NONE',  ( 0.000000000000000000, 0.000000000000000000, 1.000000000000000000 ) ) ;
#176 = CARTESIAN_POINT ( 'NONE',  ( 2.000000000000000000, 2.449293598294706414E-16, 1.500000000000000000 ) ) ;
#177 = PERSON_AND_ORGANIZATION ( #98, #151 ) ;
#178 = AXIS2_PLACEMENT_3D ( 'NONE', #57, #150, #251 ) ;
#179 = ADVANCED_FACE ( 'NONE', ( #86 ), #49, .F. ) ;
#180 = MECHANICAL_CONTEXT ( 'NONE', #13, 'mechanical' ) ;
#181 = PERSON_AND_ORGANIZATION ( #98, #151 ) ;
#182 = PERSON_AND_ORGANIZATION ( #98, #151 ) ;
#183 = DATE_AND_TIME ( #23, #297 ) ;
#184 = EDGE_CURVE ( 'NONE', #257, #186, #21, .T. ) ;
#185 = LOCAL_TIME ( 12, 36, 31.00000000000000000, #66 ) ;
#186 = VERTEX_POINT ( 'NONE', #132 ) ;
#187 = AXIS2_PLACEMENT_3D ( 'NONE', #110, #250, #194 ) ;
#188 = FACE_OUTER_BOUND ( 'NONE', #146, .T. ) ;
#189 = CARTESIAN_POINT ( 'NONE',  ( 0.000000000000000000, 0.000000000000000000, 161.5000000000000000 ) ) ;
#190 = PLANE ( 'NONE',  #89 ) ;
#191 = APPROVAL ( #160, 'NEURÈENÝ' ) ;
#192 = UNCERTAINTY_MEASURE_WITH_UNIT (LENGTH_MEASURE( 1.000000000000000082E-05 ), #87, 'distance_accuracy_value', 'NONE');
#193 = FACE_OUTER_BOUND ( 'NONE', #212, .T. ) ;
#194 = DIRECTION ( 'NONE',  ( 1.000000000000000000, 0.000000000000000000, -0.000000000000000000 ) ) ;
#195 = ADVANCED_FACE ( 'NONE', ( #127 ), #14, .F. ) ;
#196 = DIRECTION ( 'NONE',  ( 1.000000000000000000, 0.000000000000000000, 0.000000000000000000 ) ) ;
#197 = PRODUCT_RELATED_PRODUCT_CATEGORY ( 'detail', '', ( #119 ) ) ;
#198 = DIRECTION ( 'NONE',  ( 1.224646799147353207E-16, 1.000000000000000000, -0.000000000000000000 ) ) ;
#199 = VECTOR ( 'NONE', #268, 1000.000000000000000 ) ;
#200 = DIRECTION ( 'NONE',  ( -0.000000000000000000, -0.000000000000000000, -1.000000000000000000 ) ) ;
#201 = EDGE_CURVE ( 'NONE', #287, #303, #306, .T. ) ;
#202 = CARTESIAN_POINT ( 'NONE',  ( 0.000000000000000000, 0.000000000000000000, 161.5000000000000000 ) ) ;
#203 = DATE_AND_TIME ( #256, #273 ) ;
#204 = ORIENTED_EDGE ( 'NONE', *, *, #56, .F. ) ;
#205 = CALENDAR_DATE ( 2022, 7, 7 ) ;
#206 = DIRECTION ( 'NONE',  ( 1.000000000000000000, 0.000000000000000000, 0.000000000000000000 ) ) ;
#207 = EDGE_LOOP ( 'NONE', ( #141, #169 ) ) ;
#208 = PERSON_AND_ORGANIZATION ( #98, #151 ) ;
#209 = ORIENTED_EDGE ( 'NONE', *, *, #291, .F. ) ;
#210 = TOROIDAL_SURFACE ( 'NONE', #299, 1.149999999999999911, 0.2000000000000000111 ) ;
#211 = SHAPE_DEFINITION_REPRESENTATION ( #278, #105 ) ;
#212 = EDGE_LOOP ( 'NONE', ( #55, #282, #91, #102 ) ) ;
#213 = ORIENTED_EDGE ( 'NONE', *, *, #231, .T. ) ;
#214 = PLANE ( 'NONE',  #225 ) ;
#215 = LOCAL_TIME ( 12, 36, 31.00000000000000000, #118 ) ;
#216 = CIRCLE ( 'NONE', #5, 1.149999999999999911 ) ;
#217 = DIRECTION ( 'NONE',  ( -0.000000000000000000, -0.000000000000000000, -1.000000000000000000 ) ) ;
#218 = DIRECTION ( 'NONE',  ( 0.000000000000000000, 0.000000000000000000, 1.000000000000000000 ) ) ;
#219 = DIRECTION ( 'NONE',  ( 1.000000000000000000, 0.000000000000000000, 0.000000000000000000 ) ) ;
#220 = DIRECTION ( 'NONE',  ( -0.000000000000000000, -0.000000000000000000, -1.000000000000000000 ) ) ;
#221 = AXIS2_PLACEMENT_3D ( 'NONE', #133, #277, #156 ) ;
#222 = FACE_OUTER_BOUND ( 'NONE', #227, .T. ) ;
#223 = LINE ( 'NONE', #155, #38 ) ;
#224 = DIRECTION ( 'NONE',  ( 1.000000000000000000, 0.000000000000000000, 0.000000000000000000 ) ) ;
#225 = AXIS2_PLACEMENT_3D ( 'NONE', #124, #4, #149 ) ;
#226 = CYLINDRICAL_SURFACE ( 'NONE', #254, 0.9499999999999999556 ) ;
#227 = EDGE_LOOP ( 'NONE', ( #74, #265, #97, #24 ) ) ;
#228 =( NAMED_UNIT ( * ) SI_UNIT ( $, .STERADIAN. ) SOLID_ANGLE_UNIT ( ) );
#229 = AXIS2_PLACEMENT_3D ( 'NONE', #10, #48, #145 ) ;
#230 = AXIS2_PLACEMENT_3D ( 'NONE', #245, #109, #224 ) ;
#231 = EDGE_CURVE ( 'NONE', #287, #162, #80, .T. ) ;
#232 = APPROVAL_DATE_TIME ( #161, #252 ) ;
#233 = ORIENTED_EDGE ( 'NONE', *, *, #108, .T. ) ;
#234 = ADVANCED_FACE ( 'NONE', ( #292 ), #39, .T. ) ;
#235 = APPROVAL_STATUS ( 'not_yet_approved' ) ;
#236 = APPROVAL_ROLE ( '' ) ;
#237 = ORIENTED_EDGE ( 'NONE', *, *, #263, .T. ) ;
#238 = AXIS2_PLACEMENT_3D ( 'NONE', #154, #220, #134 ) ;
#239 = CARTESIAN_POINT ( 'NONE',  ( 0.000000000000000000, 0.000000000000000000, 0.000000000000000000 ) ) ;
#240 = FACE_OUTER_BOUND ( 'NONE', #45, .T. ) ;
#241 = DIRECTION ( 'NONE',  ( 0.000000000000000000, 0.000000000000000000, 1.000000000000000000 ) ) ;
#242 = CC_DESIGN_PERSON_AND_ORGANIZATION_ASSIGNMENT ( #19, #302, ( #305 ) ) ;
#243 = CARTESIAN_POINT ( 'NONE',  ( -2.000000000000000000, 0.000000000000000000, 0.000000000000000000 ) ) ;
#244 = CARTESIAN_POINT ( 'NONE',  ( 0.000000000000000000, 0.000000000000000000, 161.5000000000000000 ) ) ;
#245 = CARTESIAN_POINT ( 'NONE',  ( 0.000000000000000000, 0.000000000000000000, 161.5000000000000000 ) ) ;
#246 =( GEOMETRIC_REPRESENTATION_CONTEXT ( 3 ) GLOBAL_UNCERTAINTY_ASSIGNED_CONTEXT ( ( #192 ) ) GLOBAL_UNIT_ASSIGNED_CONTEXT ( ( #87, #40, #228 ) ) REPRESENTATION_CONTEXT ( 'NONE', 'WORKASPACE' ) );
#247 = CIRCLE ( 'NONE', #229, 0.9499999999999999556 ) ;
#248 = CARTESIAN_POINT ( 'NONE',  ( -0.9499999999999999556, 0.000000000000000000, 161.5000000000000000 ) ) ;
#249 = EDGE_CURVE ( 'NONE', #170, #290, #83, .T. ) ;
#250 = DIRECTION ( 'NONE',  ( 0.000000000000000000, 0.000000000000000000, 1.000000000000000000 ) ) ;
#251 = DIRECTION ( 'NONE',  ( 1.000000000000000000, 0.000000000000000000, 0.000000000000000000 ) ) ;
#252 = APPROVAL ( #235, 'NEURÈENÝ' ) ;
#253 = DIRECTION ( 'NONE',  ( 0.000000000000000000, 0.000000000000000000, 1.000000000000000000 ) ) ;
#254 = AXIS2_PLACEMENT_3D ( 'NONE', #202, #63, #12 ) ;
#255 = PERSON_AND_ORGANIZATION ( #98, #151 ) ;
#256 = CALENDAR_DATE ( 2022, 7, 7 ) ;
#257 = VERTEX_POINT ( 'NONE', #176 ) ;
#258 = CC_DESIGN_APPROVAL ( #191, ( #101 ) ) ;
#259 = APPLICATION_PROTOCOL_DEFINITION ( 'international standard', 'config_control_design', 1994, #36 ) ;
#260 = ORIENTED_EDGE ( 'NONE', *, *, #291, .T. ) ;
#261 = AXIS2_PLACEMENT_3D ( 'NONE', #84, #60, #35 ) ;
#262 = COORDINATED_UNIVERSAL_TIME_OFFSET ( 1, 0, .AHEAD. ) ;
#263 = EDGE_CURVE ( 'NONE', #186, #257, #90, .T. ) ;
#264 = PERSON_AND_ORGANIZATION_ROLE ( 'design_supplier' ) ;
#265 = ORIENTED_EDGE ( 'NONE', *, *, #263, .F. ) ;
#266 = CARTESIAN_POINT ( 'NONE',  ( 0.000000000000000000, 0.000000000000000000, 1.500000000000000000 ) ) ;
#267 = ORIENTED_EDGE ( 'NONE', *, *, #108, .F. ) ;
#268 = DIRECTION ( 'NONE',  ( -0.000000000000000000, -0.000000000000000000, -1.000000000000000000 ) ) ;
#269 = VERTEX_POINT ( 'NONE', #276 ) ;
#270 = CIRCLE ( 'NONE', #304, 2.000000000000000000 ) ;
#271 = CARTESIAN_POINT ( 'NONE',  ( 0.000000000000000000, 0.000000000000000000, 1.500000000000000000 ) ) ;
#272 = CARTESIAN_POINT ( 'NONE',  ( -1.149999999999999911, 1.408343819019456028E-16, 1.700000000000007061 ) ) ;
#273 = LOCAL_TIME ( 12, 36, 31.00000000000000000, #157 ) ;
#274 = AXIS2_PLACEMENT_3D ( 'NONE', #52, #28, #285 ) ;
#275 = CARTESIAN_POINT ( 'NONE',  ( 0.000000000000000000, 0.000000000000000000, 0.000000000000000000 ) ) ;
#276 = CARTESIAN_POINT ( 'NONE',  ( -1.149999999999999911, 1.408343819019456028E-16, 1.500000000000003553 ) ) ;
#277 = DIRECTION ( 'NONE',  ( 0.000000000000000000, 0.000000000000000000, 1.000000000000000000 ) ) ;
#278 = PRODUCT_DEFINITION_SHAPE ( 'NONE', 'NONE',  #305 ) ;
#279 = DATE_AND_TIME ( #92, #215 ) ;
#280 = ORIENTED_EDGE ( 'NONE', *, *, #75, .F. ) ;
#281 = ADVANCED_FACE ( 'NONE', ( #112 ), #226, .T. ) ;
#282 = ORIENTED_EDGE ( 'NONE', *, *, #34, .T. ) ;
#283 = CIRCLE ( 'NONE', #166, 0.9499999999999999556 ) ;
#284 = DATE_AND_TIME ( #205, #185 ) ;
#285 = DIRECTION ( 'NONE',  ( -1.000000000000000000, 0.000000000000000000, 0.000000000000000000 ) ) ;
#286 = CLOSED_SHELL ( 'NONE', ( #179, #281, #17, #171, #70, #195, #234, #11, #99 ) ) ;
#287 = VERTEX_POINT ( 'NONE', #248 ) ;
#288 = ORIENTED_EDGE ( 'NONE', *, *, #158, .T. ) ;
#289 = EDGE_LOOP ( 'NONE', ( #29, #123 ) ) ;
#290 = VERTEX_POINT ( 'NONE', #37 ) ;
#291 = EDGE_CURVE ( 'NONE', #170, #162, #65, .T. ) ;
#292 = FACE_OUTER_BOUND ( 'NONE', #114, .T. ) ;
#293 = CARTESIAN_POINT ( 'NONE',  ( 0.000000000000000000, 0.000000000000000000, 1.500000000000000000 ) ) ;
#294 = CARTESIAN_POINT ( 'NONE',  ( -0.9499999999999999556, 0.000000000000000000, 1.700000000000007061 ) ) ;
#295 = DIRECTION ( 'NONE',  ( 1.000000000000000000, 0.000000000000000000, 0.000000000000000000 ) ) ;
#296 = PERSON_AND_ORGANIZATION_ROLE ( 'design_owner' ) ;
#297 = LOCAL_TIME ( 12, 36, 31.00000000000000000, #262 ) ;
#298 = APPROVAL_ROLE ( '' ) ;
#299 = AXIS2_PLACEMENT_3D ( 'NONE', #147, #241, #31 ) ;
#300 = AXIS2_PLACEMENT_3D ( 'NONE', #32, #172, #111 ) ;
#301 = DATE_TIME_ROLE ( 'classification_date' ) ;
#302 = PERSON_AND_ORGANIZATION_ROLE ( 'creator' ) ;
#303 = VERTEX_POINT ( 'NONE', #107 ) ;
#304 = AXIS2_PLACEMENT_3D ( 'NONE', #275, #33, #64 ) ;
#305 = PRODUCT_DEFINITION ( 'NEZNÁMÝ', '', #101, #95 ) ;
#306 = CIRCLE ( 'NONE', #230, 0.9499999999999999556 ) ;
#307 = VERTEX_POINT ( 'NONE', #58 ) ;
ENDSEC;
END-ISO-10303-21;
