ISO-10303-21;
HEADER;
FILE_DESCRIPTION (( 'STEP AP203' ),
    '1' );
FILE_NAME ('b23f.STEP',
    '2023-02-12T12:44:16',
    ( '' ),
    ( '' ),
    'SwSTEP 2.0',
    'SolidWorks 2019',
    '' );
FILE_SCHEMA (( 'CONFIG_CONTROL_DESIGN' ));
ENDSEC;

DATA;
#1 = ORIENTED_EDGE ( 'NONE', *, *, #163, .T. ) ;
#2 = EDGE_LOOP ( 'NONE', ( #99, #160 ) ) ;
#3 = ORGANIZATION ( 'NEURÈENÝ', 'NEURÈENÝ', '' ) ;
#4 = CC_DESIGN_PERSON_AND_ORGANIZATION_ASSIGNMENT ( #157, #131, ( #92 ) ) ;
#5 = DIRECTION ( 'NONE',  ( 0.000000000000000000, 0.000000000000000000, 1.000000000000000000 ) ) ;
#6 = DIRECTION ( 'NONE',  ( 0.000000000000000000, 0.000000000000000000, 1.000000000000000000 ) ) ;
#7 = FACE_OUTER_BOUND ( 'NONE', #220, .T. ) ;
#8 = PLANE ( 'NONE',  #252 ) ;
#9 = CC_DESIGN_DATE_AND_TIME_ASSIGNMENT ( #197, #15, ( #16 ) ) ;
#10 = DIRECTION ( 'NONE',  ( 0.000000000000000000, 0.000000000000000000, 1.000000000000000000 ) ) ;
#11 = APPLICATION_PROTOCOL_DEFINITION ( 'international standard', 'config_control_design', 1994, #154 ) ;
#12 = PERSON_AND_ORGANIZATION ( #173, #3 ) ;
#13 = CC_DESIGN_PERSON_AND_ORGANIZATION_ASSIGNMENT ( #12, #106, ( #217 ) ) ;
#14 = APPROVAL_DATE_TIME ( #175, #215 ) ;
#15 = DATE_TIME_ROLE ( 'classification_date' ) ;
#16 = SECURITY_CLASSIFICATION ( '', '', #35 ) ;
#17 = CIRCLE ( 'NONE', #216, 1.600000000000000089 ) ;
#18 = APPROVAL_DATE_TIME ( #247, #129 ) ;
#19 = CARTESIAN_POINT ( 'NONE',  ( 0.000000000000000000, 0.000000000000000000, 0.000000000000000000 ) ) ;
#20 = ADVANCED_BREP_SHAPE_REPRESENTATION ( 'b23f', ( #117, #254 ), #203 ) ;
#21 = PRODUCT_DEFINITION_SHAPE ( 'NONE', 'NONE',  #217 ) ;
#22 = ORIENTED_EDGE ( 'NONE', *, *, #105, .F. ) ;
#23 = VECTOR ( 'NONE', #121, 1000.000000000000000 ) ;
#24 = DATE_AND_TIME ( #181, #57 ) ;
#25 = ORIENTED_EDGE ( 'NONE', *, *, #199, .T. ) ;
#26 = ORIENTED_EDGE ( 'NONE', *, *, #163, .F. ) ;
#27 = ORIENTED_EDGE ( 'NONE', *, *, #84, .T. ) ;
#28 = CLOSED_SHELL ( 'NONE', ( #200, #144, #48, #133, #149, #159, #184 ) ) ;
#29 = LOCAL_TIME ( 13, 44, 16.00000000000000000, #38 ) ;
#30 = DIRECTION ( 'NONE',  ( 0.000000000000000000, 0.000000000000000000, 1.000000000000000000 ) ) ;
#31 = DIRECTION ( 'NONE',  ( 1.000000000000000000, 0.000000000000000000, 0.000000000000000000 ) ) ;
#32 = LINE ( 'NONE', #102, #23 ) ;
#33 = DIRECTION ( 'NONE',  ( -0.000000000000000000, -0.000000000000000000, -1.000000000000000000 ) ) ;
#34 = DIRECTION ( 'NONE',  ( 0.000000000000000000, 0.000000000000000000, 1.000000000000000000 ) ) ;
#35 = SECURITY_CLASSIFICATION_LEVEL ( 'unclassified' ) ;
#36 = DATE_TIME_ROLE ( 'creation_date' ) ;
#37 = CALENDAR_DATE ( 2023, 12, 2 ) ;
#38 = COORDINATED_UNIVERSAL_TIME_OFFSET ( 1, 0, .AHEAD. ) ;
#39 = ORIENTED_EDGE ( 'NONE', *, *, #212, .F. ) ;
#40 = CC_DESIGN_PERSON_AND_ORGANIZATION_ASSIGNMENT ( #128, #111, ( #171 ) ) ;
#41 = ORIENTED_EDGE ( 'NONE', *, *, #56, .T. ) ;
#42 = ORIENTED_EDGE ( 'NONE', *, *, #59, .F. ) ;
#43 = VERTEX_POINT ( 'NONE', #116 ) ;
#44 = CARTESIAN_POINT ( 'NONE',  ( 0.000000000000000000, 0.000000000000000000, 3.000000000000000000 ) ) ;
#45 = LOCAL_TIME ( 13, 44, 16.00000000000000000, #87 ) ;
#46 = DIRECTION ( 'NONE',  ( -0.000000000000000000, -0.000000000000000000, -1.000000000000000000 ) ) ;
#47 = CARTESIAN_POINT ( 'NONE',  ( 0.000000000000000000, 0.000000000000000000, 3.000000000000000000 ) ) ;
#48 = ADVANCED_FACE ( 'NONE', ( #79 ), #77, .T. ) ;
#49 = DIRECTION ( 'NONE',  ( 1.000000000000000000, 0.000000000000000000, 0.000000000000000000 ) ) ;
#50 = CIRCLE ( 'NONE', #198, 1.600000000000000089 ) ;
#51 = CARTESIAN_POINT ( 'NONE',  ( 0.000000000000000000, 0.000000000000000000, 3.000000000000000000 ) ) ;
#52 = FACE_OUTER_BOUND ( 'NONE', #113, .T. ) ;
#53 = LINE ( 'NONE', #132, #139 ) ;
#54 = AXIS2_PLACEMENT_3D ( 'NONE', #85, #81, #246 ) ;
#55 = CARTESIAN_POINT ( 'NONE',  ( 3.000000000000000444, 3.673940397442060361E-16, 0.000000000000000000 ) ) ;
#56 = EDGE_CURVE ( 'NONE', #255, #202, #230, .T. ) ;
#57 = LOCAL_TIME ( 13, 44, 16.00000000000000000, #251 ) ;
#58 = ORIENTED_EDGE ( 'NONE', *, *, #120, .F. ) ;
#59 = EDGE_CURVE ( 'NONE', #234, #255, #253, .T. ) ;
#60 = ORIENTED_EDGE ( 'NONE', *, *, #199, .F. ) ;
#61 = VERTEX_POINT ( 'NONE', #80 ) ;
#62 = CIRCLE ( 'NONE', #179, 1.600000000000000089 ) ;
#63 = EDGE_LOOP ( 'NONE', ( #1, #95 ) ) ;
#64 = EDGE_LOOP ( 'NONE', ( #42, #97, #185, #201 ) ) ;
#65 = FACE_OUTER_BOUND ( 'NONE', #164, .T. ) ;
#66 = CIRCLE ( 'NONE', #188, 3.000000000000000444 ) ;
#67 = DIRECTION ( 'NONE',  ( -1.000000000000000000, 0.000000000000000000, 0.000000000000000000 ) ) ;
#68 = CC_DESIGN_PERSON_AND_ORGANIZATION_ASSIGNMENT ( #213, #93, ( #171 ) ) ;
#69 = DIRECTION ( 'NONE',  ( 0.000000000000000000, 0.000000000000000000, 1.000000000000000000 ) ) ;
#70 = CARTESIAN_POINT ( 'NONE',  ( 1.600000000000000089, 1.959434878635765230E-16, 250.0000000000000000 ) ) ;
#71 = DIRECTION ( 'NONE',  ( 1.000000000000000000, 0.000000000000000000, 0.000000000000000000 ) ) ;
#72 = CARTESIAN_POINT ( 'NONE',  ( 0.000000000000000000, 0.000000000000000000, 0.000000000000000000 ) ) ;
#73 = DIRECTION ( 'NONE',  ( -0.000000000000000000, -0.000000000000000000, -1.000000000000000000 ) ) ;
#74 = APPROVAL_ROLE ( '' ) ;
#75 = CC_DESIGN_SECURITY_CLASSIFICATION ( #16, ( #171 ) ) ;
#76 = CARTESIAN_POINT ( 'NONE',  ( 3.000000000000000444, 3.673940397442060361E-16, 3.000000000000000000 ) ) ;
#77 = CYLINDRICAL_SURFACE ( 'NONE', #236, 3.000000000000000444 ) ;
#78 = APPROVAL_DATE_TIME ( #24, #190 ) ;
#79 = FACE_OUTER_BOUND ( 'NONE', #64, .T. ) ;
#80 = CARTESIAN_POINT ( 'NONE',  ( 1.600000000000000089, 1.959434878635765230E-16, 250.0000000000000000 ) ) ;
#81 = DIRECTION ( 'NONE',  ( -0.000000000000000000, -0.000000000000000000, -1.000000000000000000 ) ) ;
#82 = CARTESIAN_POINT ( 'NONE',  ( 0.000000000000000000, 0.000000000000000000, 3.000000000000000000 ) ) ;
#83 = FACE_OUTER_BOUND ( 'NONE', #2, .T. ) ;
#84 = EDGE_CURVE ( 'NONE', #143, #135, #17, .T. ) ;
#85 = CARTESIAN_POINT ( 'NONE',  ( 0.000000000000000000, 0.000000000000000000, 3.000000000000000000 ) ) ;
#86 = PERSON_AND_ORGANIZATION ( #173, #3 ) ;
#87 = COORDINATED_UNIVERSAL_TIME_OFFSET ( 1, 0, .AHEAD. ) ;
#88 =( LENGTH_UNIT ( ) NAMED_UNIT ( * ) SI_UNIT ( .MILLI., .METRE. ) );
#89 = APPROVAL_PERSON_ORGANIZATION ( #86, #215, #74 ) ;
#90 = AXIS2_PLACEMENT_3D ( 'NONE', #241, #46, #67 ) ;
#91 = AXIS2_PLACEMENT_3D ( 'NONE', #187, #123, #225 ) ;
#92 = PRODUCT ( 'b23f', 'b23f', '', ( #195 ) ) ;
#93 = PERSON_AND_ORGANIZATION_ROLE ( 'design_supplier' ) ;
#94 = DIRECTION ( 'NONE',  ( 0.000000000000000000, 0.000000000000000000, 1.000000000000000000 ) ) ;
#95 = ORIENTED_EDGE ( 'NONE', *, *, #105, .T. ) ;
#96 = EDGE_LOOP ( 'NONE', ( #60, #218 ) ) ;
#97 = ORIENTED_EDGE ( 'NONE', *, *, #194, .F. ) ;
#98 = CIRCLE ( 'NONE', #107, 3.000000000000000444 ) ;
#99 = ORIENTED_EDGE ( 'NONE', *, *, #194, .T. ) ;
#100 = CARTESIAN_POINT ( 'NONE',  ( -1.600000000000000089, 0.000000000000000000, 3.000000000000000000 ) ) ;
#101 = FACE_BOUND ( 'NONE', #96, .T. ) ;
#102 = CARTESIAN_POINT ( 'NONE',  ( -1.600000000000000089, 0.000000000000000000, 250.0000000000000000 ) ) ;
#103 = FACE_OUTER_BOUND ( 'NONE', #142, .T. ) ;
#104 = CYLINDRICAL_SURFACE ( 'NONE', #54, 3.000000000000000444 ) ;
#105 = EDGE_CURVE ( 'NONE', #61, #43, #221, .T. ) ;
#106 = PERSON_AND_ORGANIZATION_ROLE ( 'creator' ) ;
#107 = AXIS2_PLACEMENT_3D ( 'NONE', #186, #5, #243 ) ;
#108 =( NAMED_UNIT ( * ) SI_UNIT ( $, .STERADIAN. ) SOLID_ANGLE_UNIT ( ) );
#109 = PERSON_AND_ORGANIZATION ( #173, #3 ) ;
#110 =( NAMED_UNIT ( * ) PLANE_ANGLE_UNIT ( ) SI_UNIT ( $, .RADIAN. ) );
#111 = PERSON_AND_ORGANIZATION_ROLE ( 'creator' ) ;
#112 = ORIENTED_EDGE ( 'NONE', *, *, #245, .F. ) ;
#113 = EDGE_LOOP ( 'NONE', ( #58, #219, #41, #112 ) ) ;
#114 = CC_DESIGN_PERSON_AND_ORGANIZATION_ASSIGNMENT ( #214, #250, ( #16 ) ) ;
#115 = SHAPE_DEFINITION_REPRESENTATION ( #21, #20 ) ;
#116 = CARTESIAN_POINT ( 'NONE',  ( -1.600000000000000089, 0.000000000000000000, 250.0000000000000000 ) ) ;
#117 = MANIFOLD_SOLID_BREP ( 'Pøidat vysunutím3', #28 ) ;
#118 = AXIS2_PLACEMENT_3D ( 'NONE', #19, #94, #178 ) ;
#119 = DIRECTION ( 'NONE',  ( -1.000000000000000000, 0.000000000000000000, 0.000000000000000000 ) ) ;
#120 = EDGE_CURVE ( 'NONE', #234, #141, #98, .T. ) ;
#121 = DIRECTION ( 'NONE',  ( -0.000000000000000000, -0.000000000000000000, -1.000000000000000000 ) ) ;
#122 = CARTESIAN_POINT ( 'NONE',  ( 0.000000000000000000, 0.000000000000000000, 3.000000000000000000 ) ) ;
#123 = DIRECTION ( 'NONE',  ( 0.000000000000000000, 0.000000000000000000, 1.000000000000000000 ) ) ;
#124 = CC_DESIGN_APPROVAL ( #129, ( #171 ) ) ;
#125 = DIRECTION ( 'NONE',  ( -0.000000000000000000, -0.000000000000000000, -1.000000000000000000 ) ) ;
#126 = APPLICATION_CONTEXT ( 'configuration controlled 3d designs of mechanical parts and assemblies' ) ;
#127 = PERSON_AND_ORGANIZATION ( #173, #3 ) ;
#128 = PERSON_AND_ORGANIZATION ( #173, #3 ) ;
#129 = APPROVAL ( #174, 'NEURÈENÝ' ) ;
#130 = DATE_AND_TIME ( #152, #45 ) ;
#131 = PERSON_AND_ORGANIZATION_ROLE ( 'design_owner' ) ;
#132 = CARTESIAN_POINT ( 'NONE',  ( -3.000000000000000444, 0.000000000000000000, 3.000000000000000000 ) ) ;
#133 = ADVANCED_FACE ( 'NONE', ( #101, #83 ), #8, .T. ) ;
#134 = APPROVAL_ROLE ( '' ) ;
#135 = VERTEX_POINT ( 'NONE', #100 ) ;
#136 = APPROVAL_STATUS ( 'not_yet_approved' ) ;
#137 = ORIENTED_EDGE ( 'NONE', *, *, #56, .F. ) ;
#138 = VECTOR ( 'NONE', #233, 1000.000000000000000 ) ;
#139 = VECTOR ( 'NONE', #73, 1000.000000000000000 ) ;
#140 = PRODUCT_RELATED_PRODUCT_CATEGORY ( 'detail', '', ( #92 ) ) ;
#141 = VERTEX_POINT ( 'NONE', #239 ) ;
#142 = EDGE_LOOP ( 'NONE', ( #39, #26, #238, #25 ) ) ;
#143 = VERTEX_POINT ( 'NONE', #223 ) ;
#144 = ADVANCED_FACE ( 'NONE', ( #52 ), #104, .T. ) ;
#145 = APPROVAL_PERSON_ORGANIZATION ( #127, #190, #134 ) ;
#146 = PLANE ( 'NONE',  #240 ) ;
#147 = PLANE ( 'NONE',  #91 ) ;
#148 = CYLINDRICAL_SURFACE ( 'NONE', #249, 1.600000000000000089 ) ;
#149 = ADVANCED_FACE ( 'NONE', ( #65 ), #146, .F. ) ;
#150 = DIRECTION ( 'NONE',  ( 0.000000000000000000, 0.000000000000000000, 1.000000000000000000 ) ) ;
#151 = CARTESIAN_POINT ( 'NONE',  ( 3.000000000000000444, 3.673940397442060361E-16, 3.000000000000000000 ) ) ;
#152 = CALENDAR_DATE ( 2023, 12, 2 ) ;
#153 = APPLICATION_PROTOCOL_DEFINITION ( 'international standard', 'config_control_design', 1994, #126 ) ;
#154 = APPLICATION_CONTEXT ( 'configuration controlled 3d designs of mechanical parts and assemblies' ) ;
#155 = CALENDAR_DATE ( 2023, 12, 2 ) ;
#156 = DIRECTION ( 'NONE',  ( 1.000000000000000000, 0.000000000000000000, 0.000000000000000000 ) ) ;
#157 = PERSON_AND_ORGANIZATION ( #173, #3 ) ;
#158 = AXIS2_PLACEMENT_3D ( 'NONE', #47, #204, #49 ) ;
#159 = ADVANCED_FACE ( 'NONE', ( #103 ), #228, .T. ) ;
#160 = ORIENTED_EDGE ( 'NONE', *, *, #120, .T. ) ;
#161 = CC_DESIGN_APPROVAL ( #215, ( #217 ) ) ;
#162 = DIRECTION ( 'NONE',  ( -0.000000000000000000, -0.000000000000000000, -1.000000000000000000 ) ) ;
#163 = EDGE_CURVE ( 'NONE', #43, #61, #50, .T. ) ;
#164 = EDGE_LOOP ( 'NONE', ( #182, #137 ) ) ;
#165 = DIRECTION ( 'NONE',  ( 1.000000000000000000, 0.000000000000000000, -0.000000000000000000 ) ) ;
#166 = CARTESIAN_POINT ( 'NONE',  ( 0.000000000000000000, 0.000000000000000000, 0.000000000000000000 ) ) ;
#167 = DIRECTION ( 'NONE',  ( 1.000000000000000000, 0.000000000000000000, -0.000000000000000000 ) ) ;
#168 = CC_DESIGN_DATE_AND_TIME_ASSIGNMENT ( #130, #36, ( #217 ) ) ;
#169 = LINE ( 'NONE', #70, #207 ) ;
#170 = CARTESIAN_POINT ( 'NONE',  ( -3.000000000000000444, 0.000000000000000000, 0.000000000000000000 ) ) ;
#171 = PRODUCT_DEFINITION_FORMATION_WITH_SPECIFIED_SOURCE ( 'LIBOVOLNÝ', '', #92, .NOT_KNOWN. ) ;
#172 = UNCERTAINTY_MEASURE_WITH_UNIT (LENGTH_MEASURE( 1.000000000000000082E-05 ), #88, 'distance_accuracy_value', 'NONE');
#173 = PERSON ( 'NEURÈENÝ', 'NEURÈENÝ', 'NEURÈENÝ', ('NEURÈENÝ'), ('NEURÈENÝ'), ('NEURÈENÝ') ) ;
#174 = APPROVAL_STATUS ( 'not_yet_approved' ) ;
#175 = DATE_AND_TIME ( #232, #29 ) ;
#176 = EDGE_CURVE ( 'NONE', #43, #135, #32, .T. ) ;
#177 = COORDINATED_UNIVERSAL_TIME_OFFSET ( 1, 0, .AHEAD. ) ;
#178 = DIRECTION ( 'NONE',  ( 1.000000000000000000, 0.000000000000000000, 0.000000000000000000 ) ) ;
#179 = AXIS2_PLACEMENT_3D ( 'NONE', #122, #206, #189 ) ;
#180 = ORIENTED_EDGE ( 'NONE', *, *, #212, .T. ) ;
#181 = CALENDAR_DATE ( 2023, 12, 2 ) ;
#182 = ORIENTED_EDGE ( 'NONE', *, *, #224, .F. ) ;
#183 = APPROVAL_PERSON_ORGANIZATION ( #109, #129, #196 ) ;
#184 = ADVANCED_FACE ( 'NONE', ( #205 ), #147, .T. ) ;
#185 = ORIENTED_EDGE ( 'NONE', *, *, #245, .T. ) ;
#186 = CARTESIAN_POINT ( 'NONE',  ( 0.000000000000000000, 0.000000000000000000, 3.000000000000000000 ) ) ;
#187 = CARTESIAN_POINT ( 'NONE',  ( 0.000000000000000000, 0.000000000000000000, 250.0000000000000000 ) ) ;
#188 = AXIS2_PLACEMENT_3D ( 'NONE', #211, #34, #71 ) ;
#189 = DIRECTION ( 'NONE',  ( 1.000000000000000000, 0.000000000000000000, 0.000000000000000000 ) ) ;
#190 = APPROVAL ( #136, 'NEURÈENÝ' ) ;
#191 = DIRECTION ( 'NONE',  ( -1.000000000000000000, 0.000000000000000000, 0.000000000000000000 ) ) ;
#192 = DESIGN_CONTEXT ( 'detailed design', #126, 'design' ) ;
#193 = DIRECTION ( 'NONE',  ( 1.000000000000000000, 0.000000000000000000, 0.000000000000000000 ) ) ;
#194 = EDGE_CURVE ( 'NONE', #141, #234, #235, .T. ) ;
#195 = MECHANICAL_CONTEXT ( 'NONE', #154, 'mechanical' ) ;
#196 = APPROVAL_ROLE ( '' ) ;
#197 = DATE_AND_TIME ( #37, #244 ) ;
#198 = AXIS2_PLACEMENT_3D ( 'NONE', #242, #69, #193 ) ;
#199 = EDGE_CURVE ( 'NONE', #135, #143, #62, .T. ) ;
#200 = ADVANCED_FACE ( 'NONE', ( #7 ), #148, .T. ) ;
#201 = ORIENTED_EDGE ( 'NONE', *, *, #224, .T. ) ;
#202 = VERTEX_POINT ( 'NONE', #170 ) ;
#203 =( GEOMETRIC_REPRESENTATION_CONTEXT ( 3 ) GLOBAL_UNCERTAINTY_ASSIGNED_CONTEXT ( ( #172 ) ) GLOBAL_UNIT_ASSIGNED_CONTEXT ( ( #88, #110, #108 ) ) REPRESENTATION_CONTEXT ( 'NONE', 'WORKASPACE' ) );
#204 = DIRECTION ( 'NONE',  ( 0.000000000000000000, 0.000000000000000000, 1.000000000000000000 ) ) ;
#205 = FACE_OUTER_BOUND ( 'NONE', #63, .T. ) ;
#206 = DIRECTION ( 'NONE',  ( 0.000000000000000000, 0.000000000000000000, 1.000000000000000000 ) ) ;
#207 = VECTOR ( 'NONE', #125, 1000.000000000000000 ) ;
#208 = AXIS2_PLACEMENT_3D ( 'NONE', #226, #6, #31 ) ;
#209 = LOCAL_TIME ( 13, 44, 16.00000000000000000, #231 ) ;
#210 = CARTESIAN_POINT ( 'NONE',  ( 0.000000000000000000, 0.000000000000000000, 250.0000000000000000 ) ) ;
#211 = CARTESIAN_POINT ( 'NONE',  ( 0.000000000000000000, 0.000000000000000000, 0.000000000000000000 ) ) ;
#212 = EDGE_CURVE ( 'NONE', #61, #143, #169, .T. ) ;
#213 = PERSON_AND_ORGANIZATION ( #173, #3 ) ;
#214 = PERSON_AND_ORGANIZATION ( #173, #3 ) ;
#215 = APPROVAL ( #229, 'NEURÈENÝ' ) ;
#216 = AXIS2_PLACEMENT_3D ( 'NONE', #82, #150, #227 ) ;
#217 = PRODUCT_DEFINITION ( 'NEZNÁMÝ', '', #171, #192 ) ;
#218 = ORIENTED_EDGE ( 'NONE', *, *, #84, .F. ) ;
#219 = ORIENTED_EDGE ( 'NONE', *, *, #59, .T. ) ;
#220 = EDGE_LOOP ( 'NONE', ( #22, #180, #27, #237 ) ) ;
#221 = CIRCLE ( 'NONE', #208, 1.600000000000000089 ) ;
#222 = CC_DESIGN_APPROVAL ( #190, ( #16 ) ) ;
#223 = CARTESIAN_POINT ( 'NONE',  ( 1.600000000000000089, 1.959434878635765230E-16, 3.000000000000000000 ) ) ;
#224 = EDGE_CURVE ( 'NONE', #202, #255, #66, .T. ) ;
#225 = DIRECTION ( 'NONE',  ( 1.000000000000000000, 0.000000000000000000, -0.000000000000000000 ) ) ;
#226 = CARTESIAN_POINT ( 'NONE',  ( 0.000000000000000000, 0.000000000000000000, 250.0000000000000000 ) ) ;
#227 = DIRECTION ( 'NONE',  ( 1.000000000000000000, 0.000000000000000000, 0.000000000000000000 ) ) ;
#228 = CYLINDRICAL_SURFACE ( 'NONE', #90, 1.600000000000000089 ) ;
#229 = APPROVAL_STATUS ( 'not_yet_approved' ) ;
#230 = CIRCLE ( 'NONE', #118, 3.000000000000000444 ) ;
#231 = COORDINATED_UNIVERSAL_TIME_OFFSET ( 1, 0, .AHEAD. ) ;
#232 = CALENDAR_DATE ( 2023, 12, 2 ) ;
#233 = DIRECTION ( 'NONE',  ( -0.000000000000000000, -0.000000000000000000, -1.000000000000000000 ) ) ;
#234 = VERTEX_POINT ( 'NONE', #151 ) ;
#235 = CIRCLE ( 'NONE', #158, 3.000000000000000444 ) ;
#236 = AXIS2_PLACEMENT_3D ( 'NONE', #44, #162, #119 ) ;
#237 = ORIENTED_EDGE ( 'NONE', *, *, #176, .F. ) ;
#238 = ORIENTED_EDGE ( 'NONE', *, *, #176, .T. ) ;
#239 = CARTESIAN_POINT ( 'NONE',  ( -3.000000000000000444, 0.000000000000000000, 3.000000000000000000 ) ) ;
#240 = AXIS2_PLACEMENT_3D ( 'NONE', #166, #30, #167 ) ;
#241 = CARTESIAN_POINT ( 'NONE',  ( 0.000000000000000000, 0.000000000000000000, 250.0000000000000000 ) ) ;
#242 = CARTESIAN_POINT ( 'NONE',  ( 0.000000000000000000, 0.000000000000000000, 250.0000000000000000 ) ) ;
#243 = DIRECTION ( 'NONE',  ( 1.000000000000000000, 0.000000000000000000, 0.000000000000000000 ) ) ;
#244 = LOCAL_TIME ( 13, 44, 16.00000000000000000, #177 ) ;
#245 = EDGE_CURVE ( 'NONE', #141, #202, #53, .T. ) ;
#246 = DIRECTION ( 'NONE',  ( -1.000000000000000000, 0.000000000000000000, 0.000000000000000000 ) ) ;
#247 = DATE_AND_TIME ( #155, #209 ) ;
#248 = DIRECTION ( 'NONE',  ( 0.000000000000000000, 0.000000000000000000, 1.000000000000000000 ) ) ;
#249 = AXIS2_PLACEMENT_3D ( 'NONE', #210, #33, #191 ) ;
#250 = PERSON_AND_ORGANIZATION_ROLE ( 'classification_officer' ) ;
#251 = COORDINATED_UNIVERSAL_TIME_OFFSET ( 1, 0, .AHEAD. ) ;
#252 = AXIS2_PLACEMENT_3D ( 'NONE', #51, #10, #165 ) ;
#253 = LINE ( 'NONE', #76, #138 ) ;
#254 = AXIS2_PLACEMENT_3D ( 'NONE', #72, #248, #156 ) ;
#255 = VERTEX_POINT ( 'NONE', #55 ) ;
ENDSEC;
END-ISO-10303-21;
