ISO-10303-21;
HEADER;
FILE_DESCRIPTION (( 'STEP AP203' ),
    '1' );
FILE_NAME ('ba6e.STEP',
    '2022-07-07T10:26:17',
    ( '' ),
    ( '' ),
    'SwSTEP 2.0',
    'SolidWorks 2019',
    '' );
FILE_SCHEMA (( 'CONFIG_CONTROL_DESIGN' ));
ENDSEC;

DATA;
#1 = VECTOR ( 'NONE', #20, 1000.000000000000000 ) ;
#2 = APPROVAL_STATUS ( 'not_yet_approved' ) ;
#3 = AXIS2_PLACEMENT_3D ( 'NONE', #167, #44, #192 ) ;
#4 = PERSON_AND_ORGANIZATION ( #59, #93 ) ;
#5 = LOCAL_TIME ( 12, 26, 17.00000000000000000, #40 ) ;
#6 = ORIENTED_EDGE ( 'NONE', *, *, #220, .F. ) ;
#7 = DIRECTION ( 'NONE',  ( 1.000000000000000000, 0.000000000000000000, -0.000000000000000000 ) ) ;
#8 = EDGE_CURVE ( 'NONE', #14, #105, #222, .T. ) ;
#9 = CARTESIAN_POINT ( 'NONE',  ( 0.000000000000000000, 0.000000000000000000, 3.200000000000008171 ) ) ;
#10 = VERTEX_POINT ( 'NONE', #268 ) ;
#11 = LOCAL_TIME ( 12, 26, 17.00000000000000000, #95 ) ;
#12 = APPROVAL ( #98, 'NEURÈENÝ' ) ;
#13 = CARTESIAN_POINT ( 'NONE',  ( 0.000000000000000000, 0.000000000000000000, 3.200000000000008171 ) ) ;
#14 = VERTEX_POINT ( 'NONE', #34 ) ;
#15 = ORIENTED_EDGE ( 'NONE', *, *, #70, .F. ) ;
#16 = CARTESIAN_POINT ( 'NONE',  ( 0.000000000000000000, 0.000000000000000000, 3.000000000000000000 ) ) ;
#17 = AXIS2_PLACEMENT_3D ( 'NONE', #172, #235, #259 ) ;
#18 = CARTESIAN_POINT ( 'NONE',  ( 0.000000000000000000, 0.000000000000000000, 3.000000000000000000 ) ) ;
#19 = CC_DESIGN_PERSON_AND_ORGANIZATION_ASSIGNMENT ( #200, #96, ( #217 ) ) ;
#20 = DIRECTION ( 'NONE',  ( -0.000000000000000000, -0.000000000000000000, -1.000000000000000000 ) ) ;
#21 = PLANE ( 'NONE',  #184 ) ;
#22 = FACE_OUTER_BOUND ( 'NONE', #209, .T. ) ;
#23 = EDGE_CURVE ( 'NONE', #83, #33, #43, .T. ) ;
#24 = DATE_AND_TIME ( #28, #155 ) ;
#25 = APPROVAL_ROLE ( '' ) ;
#26 = ADVANCED_FACE ( 'NONE', ( #289 ), #293, .F. ) ;
#27 = CIRCLE ( 'NONE', #106, 0.2000000000000000944 ) ;
#28 = CALENDAR_DATE ( 2022, 7, 7 ) ;
#29 = ORIENTED_EDGE ( 'NONE', *, *, #141, .T. ) ;
#30 = DIRECTION ( 'NONE',  ( 1.000000000000000000, 0.000000000000000000, 0.000000000000000000 ) ) ;
#31 = CC_DESIGN_APPROVAL ( #54, ( #230 ) ) ;
#32 = ORIENTED_EDGE ( 'NONE', *, *, #119, .T. ) ;
#33 = VERTEX_POINT ( 'NONE', #234 ) ;
#34 = CARTESIAN_POINT ( 'NONE',  ( 2.000000000000000000, 2.449293598294706414E-16, 163.0000000000000000 ) ) ;
#35 = AXIS2_PLACEMENT_3D ( 'NONE', #157, #104, #7 ) ;
#36 = EDGE_LOOP ( 'NONE', ( #164, #233, #290, #252 ) ) ;
#37 = MANIFOLD_SOLID_BREP ( 'Zaoblit1', #202 ) ;
#38 = VERTEX_POINT ( 'NONE', #251 ) ;
#39 = EDGE_LOOP ( 'NONE', ( #208, #180 ) ) ;
#40 = COORDINATED_UNIVERSAL_TIME_OFFSET ( 1, 0, .AHEAD. ) ;
#41 = DIRECTION ( 'NONE',  ( 0.000000000000000000, 0.000000000000000000, 1.000000000000000000 ) ) ;
#42 = ORIENTED_EDGE ( 'NONE', *, *, #70, .T. ) ;
#43 = LINE ( 'NONE', #136, #219 ) ;
#44 = DIRECTION ( 'NONE',  ( 0.000000000000000000, 0.000000000000000000, 1.000000000000000000 ) ) ;
#45 = AXIS2_PLACEMENT_3D ( 'NONE', #68, #239, #302 ) ;
#46 = FACE_OUTER_BOUND ( 'NONE', #186, .T. ) ;
#47 = DIRECTION ( 'NONE',  ( 0.000000000000000000, 0.000000000000000000, 1.000000000000000000 ) ) ;
#48 = CC_DESIGN_DATE_AND_TIME_ASSIGNMENT ( #260, #224, ( #217 ) ) ;
#49 = PERSON_AND_ORGANIZATION ( #59, #93 ) ;
#50 = SECURITY_CLASSIFICATION_LEVEL ( 'unclassified' ) ;
#51 = PRODUCT_RELATED_PRODUCT_CATEGORY ( 'detail', '', ( #297 ) ) ;
#52 = CC_DESIGN_SECURITY_CLASSIFICATION ( #217, ( #230 ) ) ;
#53 = CALENDAR_DATE ( 2022, 7, 7 ) ;
#54 = APPROVAL ( #146, 'NEURÈENÝ' ) ;
#55 = DIRECTION ( 'NONE',  ( 1.000000000000000000, 0.000000000000000000, 0.000000000000000000 ) ) ;
#56 = EDGE_LOOP ( 'NONE', ( #294, #250, #245, #15 ) ) ;
#57 = APPLICATION_CONTEXT ( 'configuration controlled 3d designs of mechanical parts and assemblies' ) ;
#58 = DIRECTION ( 'NONE',  ( 1.000000000000000000, 0.000000000000000000, 0.000000000000000000 ) ) ;
#59 = PERSON ( 'NEURÈENÝ', 'NEURÈENÝ', 'NEURÈENÝ', ('NEURÈENÝ'), ('NEURÈENÝ'), ('NEURÈENÝ') ) ;
#60 = APPROVAL_DATE_TIME ( #129, #12 ) ;
#61 = DIRECTION ( 'NONE',  ( -0.000000000000000000, -0.000000000000000000, -1.000000000000000000 ) ) ;
#62 = DIRECTION ( 'NONE',  ( 1.000000000000000000, 0.000000000000000000, 0.000000000000000000 ) ) ;
#63 = APPROVAL_PERSON_ORGANIZATION ( #4, #12, #160 ) ;
#64 =( NAMED_UNIT ( * ) PLANE_ANGLE_UNIT ( ) SI_UNIT ( $, .RADIAN. ) );
#65 = PRODUCT_DEFINITION ( 'NEZNÁMÝ', '', #230, #264 ) ;
#66 = DIRECTION ( 'NONE',  ( -1.000000000000000000, 1.224646799147353207E-16, 0.000000000000000000 ) ) ;
#67 = DIRECTION ( 'NONE',  ( -0.000000000000000000, -0.000000000000000000, -1.000000000000000000 ) ) ;
#68 = CARTESIAN_POINT ( 'NONE',  ( 0.000000000000000000, 0.000000000000000000, 3.000000000000000000 ) ) ;
#69 = AXIS2_PLACEMENT_3D ( 'NONE', #132, #183, #298 ) ;
#70 = EDGE_CURVE ( 'NONE', #295, #165, #27, .T. ) ;
#71 = DIRECTION ( 'NONE',  ( 1.000000000000000000, 0.000000000000000000, 0.000000000000000000 ) ) ;
#72 = ADVANCED_BREP_SHAPE_REPRESENTATION ( 'ba6e', ( #37, #175 ), #300 ) ;
#73 = DATE_AND_TIME ( #201, #11 ) ;
#74 = AXIS2_PLACEMENT_3D ( 'NONE', #138, #218, #305 ) ;
#75 = PERSON_AND_ORGANIZATION ( #59, #93 ) ;
#76 = EDGE_CURVE ( 'NONE', #33, #38, #116, .T. ) ;
#77 = ORIENTED_EDGE ( 'NONE', *, *, #207, .T. ) ;
#78 = CARTESIAN_POINT ( 'NONE',  ( 0.000000000000000000, 0.000000000000000000, 163.0000000000000000 ) ) ;
#79 = EDGE_LOOP ( 'NONE', ( #159, #253, #80, #265 ) ) ;
#80 = ORIENTED_EDGE ( 'NONE', *, *, #220, .T. ) ;
#81 = DIRECTION ( 'NONE',  ( 1.000000000000000000, 0.000000000000000000, 0.000000000000000000 ) ) ;
#82 = ADVANCED_FACE ( 'NONE', ( #108 ), #281, .F. ) ;
#83 = VERTEX_POINT ( 'NONE', #292 ) ;
#84 = DIRECTION ( 'NONE',  ( 0.000000000000000000, 0.000000000000000000, 1.000000000000000000 ) ) ;
#85 = DIRECTION ( 'NONE',  ( 0.000000000000000000, 0.000000000000000000, 1.000000000000000000 ) ) ;
#86 = EDGE_CURVE ( 'NONE', #295, #10, #99, .T. ) ;
#87 = DIRECTION ( 'NONE',  ( 1.000000000000000000, 0.000000000000000000, 0.000000000000000000 ) ) ;
#88 = CIRCLE ( 'NONE', #272, 2.000000000000000000 ) ;
#89 = FACE_OUTER_BOUND ( 'NONE', #36, .T. ) ;
#90 = CARTESIAN_POINT ( 'NONE',  ( 0.000000000000000000, 0.000000000000000000, 3.000000000000000000 ) ) ;
#91 = CYLINDRICAL_SURFACE ( 'NONE', #45, 4.000000000000000000 ) ;
#92 = PERSON_AND_ORGANIZATION_ROLE ( 'creator' ) ;
#93 = ORGANIZATION ( 'NEURÈENÝ', 'NEURÈENÝ', '' ) ;
#94 = CC_DESIGN_DATE_AND_TIME_ASSIGNMENT ( #73, #173, ( #65 ) ) ;
#95 = COORDINATED_UNIVERSAL_TIME_OFFSET ( 1, 0, .AHEAD. ) ;
#96 = PERSON_AND_ORGANIZATION_ROLE ( 'classification_officer' ) ;
#97 = EDGE_CURVE ( 'NONE', #232, #83, #152, .T. ) ;
#98 = APPROVAL_STATUS ( 'not_yet_approved' ) ;
#99 = CIRCLE ( 'NONE', #275, 2.000000000000000000 ) ;
#100 = DIRECTION ( 'NONE',  ( -0.000000000000000000, -0.000000000000000000, -1.000000000000000000 ) ) ;
#101 = LINE ( 'NONE', #248, #142 ) ;
#102 = CIRCLE ( 'NONE', #211, 2.000000000000000000 ) ;
#103 = APPROVAL_PERSON_ORGANIZATION ( #178, #54, #25 ) ;
#104 = DIRECTION ( 'NONE',  ( 0.000000000000000000, 0.000000000000000000, 1.000000000000000000 ) ) ;
#105 = VERTEX_POINT ( 'NONE', #191 ) ;
#106 = AXIS2_PLACEMENT_3D ( 'NONE', #266, #127, #204 ) ;
#107 = ORIENTED_EDGE ( 'NONE', *, *, #158, .F. ) ;
#108 = FACE_OUTER_BOUND ( 'NONE', #123, .T. ) ;
#109 = ADVANCED_FACE ( 'NONE', ( #154 ), #229, .T. ) ;
#110 = FACE_OUTER_BOUND ( 'NONE', #39, .T. ) ;
#111 = CC_DESIGN_APPROVAL ( #236, ( #65 ) ) ;
#112 = CARTESIAN_POINT ( 'NONE',  ( -2.200000000000000178, 2.694222958124177006E-16, 3.000000000000004441 ) ) ;
#113 = PLANE ( 'NONE',  #190 ) ;
#114 = DIRECTION ( 'NONE',  ( 1.224646799147353207E-16, 1.000000000000000000, -0.000000000000000000 ) ) ;
#115 = CYLINDRICAL_SURFACE ( 'NONE', #17, 2.000000000000000000 ) ;
#116 = CIRCLE ( 'NONE', #117, 4.000000000000000000 ) ;
#117 = AXIS2_PLACEMENT_3D ( 'NONE', #228, #288, #55 ) ;
#118 = DATE_AND_TIME ( #53, #150 ) ;
#119 = EDGE_CURVE ( 'NONE', #14, #295, #101, .T. ) ;
#120 = CARTESIAN_POINT ( 'NONE',  ( 0.000000000000000000, 0.000000000000000000, 0.000000000000000000 ) ) ;
#121 = AXIS2_PLACEMENT_3D ( 'NONE', #78, #185, #62 ) ;
#122 = APPROVAL_DATE_TIME ( #24, #54 ) ;
#123 = EDGE_LOOP ( 'NONE', ( #274, #269, #42, #267 ) ) ;
#124 = CALENDAR_DATE ( 2022, 7, 7 ) ;
#125 = CIRCLE ( 'NONE', #145, 2.200000000000000178 ) ;
#126 = ORIENTED_EDGE ( 'NONE', *, *, #23, .T. ) ;
#127 = DIRECTION ( 'NONE',  ( 0.000000000000000000, -1.000000000000000000, 0.000000000000000000 ) ) ;
#128 = UNCERTAINTY_MEASURE_WITH_UNIT (LENGTH_MEASURE( 1.000000000000000082E-05 ), #306, 'distance_accuracy_value', 'NONE');
#129 = DATE_AND_TIME ( #291, #5 ) ;
#130 = EDGE_CURVE ( 'NONE', #232, #38, #270, .T. ) ;
#131 = ORIENTED_EDGE ( 'NONE', *, *, #76, .T. ) ;
#132 = CARTESIAN_POINT ( 'NONE',  ( 0.000000000000000000, 0.000000000000000000, 3.200000000000008171 ) ) ;
#133 = DIRECTION ( 'NONE',  ( 0.000000000000000000, 0.000000000000000000, 1.000000000000000000 ) ) ;
#134 = EDGE_LOOP ( 'NONE', ( #226, #32, #161, #247 ) ) ;
#135 = EDGE_CURVE ( 'NONE', #10, #295, #88, .T. ) ;
#136 = CARTESIAN_POINT ( 'NONE',  ( -4.000000000000000000, 0.000000000000000000, 3.000000000000000000 ) ) ;
#137 = CARTESIAN_POINT ( 'NONE',  ( -2.200000000000000178, 2.694222958124177006E-16, 3.200000000000008171 ) ) ;
#138 = CARTESIAN_POINT ( 'NONE',  ( 0.000000000000000000, 0.000000000000000000, 163.0000000000000000 ) ) ;
#139 = APPROVAL_PERSON_ORGANIZATION ( #75, #236, #153 ) ;
#140 = DIRECTION ( 'NONE',  ( 1.000000000000000000, 0.000000000000000000, 0.000000000000000000 ) ) ;
#141 = EDGE_CURVE ( 'NONE', #188, #165, #278, .T. ) ;
#142 = VECTOR ( 'NONE', #187, 1000.000000000000000 ) ;
#143 = DIRECTION ( 'NONE',  ( -0.000000000000000000, -0.000000000000000000, -1.000000000000000000 ) ) ;
#144 = CYLINDRICAL_SURFACE ( 'NONE', #74, 2.000000000000000000 ) ;
#145 = AXIS2_PLACEMENT_3D ( 'NONE', #196, #67, #213 ) ;
#146 = APPROVAL_STATUS ( 'not_yet_approved' ) ;
#147 = AXIS2_PLACEMENT_3D ( 'NONE', #210, #133, #81 ) ;
#148 =( NAMED_UNIT ( * ) SI_UNIT ( $, .STERADIAN. ) SOLID_ANGLE_UNIT ( ) );
#149 = CIRCLE ( 'NONE', #195, 0.2000000000000000944 ) ;
#150 = LOCAL_TIME ( 12, 26, 17.00000000000000000, #243 ) ;
#151 = DIRECTION ( 'NONE',  ( 0.000000000000000000, 0.000000000000000000, 1.000000000000000000 ) ) ;
#152 = CIRCLE ( 'NONE', #147, 4.000000000000000000 ) ;
#153 = APPROVAL_ROLE ( '' ) ;
#154 = FACE_OUTER_BOUND ( 'NONE', #271, .T. ) ;
#155 = LOCAL_TIME ( 12, 26, 17.00000000000000000, #262 ) ;
#156 = ORIENTED_EDGE ( 'NONE', *, *, #8, .T. ) ;
#157 = CARTESIAN_POINT ( 'NONE',  ( 0.000000000000000000, 0.000000000000000000, 163.0000000000000000 ) ) ;
#158 = EDGE_CURVE ( 'NONE', #83, #232, #242, .T. ) ;
#159 = ORIENTED_EDGE ( 'NONE', *, *, #97, .F. ) ;
#160 = APPROVAL_ROLE ( '' ) ;
#161 = ORIENTED_EDGE ( 'NONE', *, *, #86, .T. ) ;
#162 = ORIENTED_EDGE ( 'NONE', *, *, #181, .T. ) ;
#163 = CARTESIAN_POINT ( 'NONE',  ( 0.000000000000000000, 0.000000000000000000, 3.200000000000008171 ) ) ;
#164 = ORIENTED_EDGE ( 'NONE', *, *, #119, .F. ) ;
#165 = VERTEX_POINT ( 'NONE', #169 ) ;
#166 = AXIS2_PLACEMENT_3D ( 'NONE', #9, #41, #189 ) ;
#167 = CARTESIAN_POINT ( 'NONE',  ( 0.000000000000000000, 0.000000000000000000, 0.000000000000000000 ) ) ;
#168 = DIRECTION ( 'NONE',  ( 0.000000000000000000, 0.000000000000000000, 1.000000000000000000 ) ) ;
#169 = CARTESIAN_POINT ( 'NONE',  ( 2.200000000000000178, 0.000000000000000000, 3.000000000000004441 ) ) ;
#170 = CC_DESIGN_PERSON_AND_ORGANIZATION_ASSIGNMENT ( #307, #92, ( #230 ) ) ;
#171 = CARTESIAN_POINT ( 'NONE',  ( -2.000000000000000000, 0.000000000000000000, 163.0000000000000000 ) ) ;
#172 = CARTESIAN_POINT ( 'NONE',  ( 0.000000000000000000, 0.000000000000000000, 163.0000000000000000 ) ) ;
#173 = DATE_TIME_ROLE ( 'creation_date' ) ;
#174 = AXIS2_PLACEMENT_3D ( 'NONE', #18, #194, #71 ) ;
#175 = AXIS2_PLACEMENT_3D ( 'NONE', #120, #151, #30 ) ;
#176 = PERSON_AND_ORGANIZATION_ROLE ( 'creator' ) ;
#177 = APPLICATION_PROTOCOL_DEFINITION ( 'international standard', 'config_control_design', 1994, #57 ) ;
#178 = PERSON_AND_ORGANIZATION ( #59, #93 ) ;
#179 = APPLICATION_PROTOCOL_DEFINITION ( 'international standard', 'config_control_design', 1994, #182 ) ;
#180 = ORIENTED_EDGE ( 'NONE', *, *, #97, .T. ) ;
#181 = EDGE_CURVE ( 'NONE', #165, #188, #125, .T. ) ;
#182 = APPLICATION_CONTEXT ( 'configuration controlled 3d designs of mechanical parts and assemblies' ) ;
#183 = DIRECTION ( 'NONE',  ( 0.000000000000000000, 0.000000000000000000, 1.000000000000000000 ) ) ;
#184 = AXIS2_PLACEMENT_3D ( 'NONE', #256, #168, #277 ) ;
#185 = DIRECTION ( 'NONE',  ( 0.000000000000000000, 0.000000000000000000, 1.000000000000000000 ) ) ;
#186 = EDGE_LOOP ( 'NONE', ( #227, #6 ) ) ;
#187 = DIRECTION ( 'NONE',  ( -0.000000000000000000, -0.000000000000000000, -1.000000000000000000 ) ) ;
#188 = VERTEX_POINT ( 'NONE', #112 ) ;
#189 = DIRECTION ( 'NONE',  ( 1.000000000000000000, 0.000000000000000000, 0.000000000000000000 ) ) ;
#190 = AXIS2_PLACEMENT_3D ( 'NONE', #282, #47, #301 ) ;
#191 = CARTESIAN_POINT ( 'NONE',  ( -2.000000000000000000, 0.000000000000000000, 163.0000000000000000 ) ) ;
#192 = DIRECTION ( 'NONE',  ( 1.000000000000000000, 0.000000000000000000, 0.000000000000000000 ) ) ;
#193 = VECTOR ( 'NONE', #61, 1000.000000000000000 ) ;
#194 = DIRECTION ( 'NONE',  ( -0.000000000000000000, -0.000000000000000000, -1.000000000000000000 ) ) ;
#195 = AXIS2_PLACEMENT_3D ( 'NONE', #137, #114, #66 ) ;
#196 = CARTESIAN_POINT ( 'NONE',  ( 0.000000000000000000, 0.000000000000000000, 3.000000000000000000 ) ) ;
#197 = LOCAL_TIME ( 12, 26, 17.00000000000000000, #263 ) ;
#198 = FACE_OUTER_BOUND ( 'NONE', #134, .T. ) ;
#199 = CC_DESIGN_PERSON_AND_ORGANIZATION_ASSIGNMENT ( #244, #223, ( #230 ) ) ;
#200 = PERSON_AND_ORGANIZATION ( #59, #93 ) ;
#201 = CALENDAR_DATE ( 2022, 7, 7 ) ;
#202 = CLOSED_SHELL ( 'NONE', ( #26, #303, #273, #225, #280, #203, #286, #109, #82 ) ) ;
#203 = ADVANCED_FACE ( 'NONE', ( #46 ), #113, .F. ) ;
#204 = DIRECTION ( 'NONE',  ( 0.000000000000000000, 0.000000000000000000, -1.000000000000000000 ) ) ;
#205 = CARTESIAN_POINT ( 'NONE',  ( 4.000000000000000000, 4.898587196589412829E-16, 3.000000000000000000 ) ) ;
#206 = SHAPE_DEFINITION_REPRESENTATION ( #214, #72 ) ;
#207 = EDGE_CURVE ( 'NONE', #105, #14, #102, .T. ) ;
#208 = ORIENTED_EDGE ( 'NONE', *, *, #158, .T. ) ;
#209 = EDGE_LOOP ( 'NONE', ( #287, #107, #126, #131 ) ) ;
#210 = CARTESIAN_POINT ( 'NONE',  ( 0.000000000000000000, 0.000000000000000000, 3.000000000000000000 ) ) ;
#211 = AXIS2_PLACEMENT_3D ( 'NONE', #258, #216, #87 ) ;
#212 = CC_DESIGN_APPROVAL ( #12, ( #217 ) ) ;
#213 = DIRECTION ( 'NONE',  ( 1.000000000000000000, 0.000000000000000000, 0.000000000000000000 ) ) ;
#214 = PRODUCT_DEFINITION_SHAPE ( 'NONE', 'NONE',  #65 ) ;
#215 = LINE ( 'NONE', #171, #1 ) ;
#216 = DIRECTION ( 'NONE',  ( 0.000000000000000000, 0.000000000000000000, 1.000000000000000000 ) ) ;
#217 = SECURITY_CLASSIFICATION ( '', '', #50 ) ;
#218 = DIRECTION ( 'NONE',  ( -0.000000000000000000, -0.000000000000000000, -1.000000000000000000 ) ) ;
#219 = VECTOR ( 'NONE', #100, 1000.000000000000000 ) ;
#220 = EDGE_CURVE ( 'NONE', #38, #33, #283, .T. ) ;
#221 = PERSON_AND_ORGANIZATION ( #59, #93 ) ;
#222 = CIRCLE ( 'NONE', #121, 2.000000000000000000 ) ;
#223 = PERSON_AND_ORGANIZATION_ROLE ( 'design_supplier' ) ;
#224 = DATE_TIME_ROLE ( 'classification_date' ) ;
#225 = ADVANCED_FACE ( 'NONE', ( #22 ), #304, .T. ) ;
#226 = ORIENTED_EDGE ( 'NONE', *, *, #8, .F. ) ;
#227 = ORIENTED_EDGE ( 'NONE', *, *, #76, .F. ) ;
#228 = CARTESIAN_POINT ( 'NONE',  ( 0.000000000000000000, 0.000000000000000000, 0.000000000000000000 ) ) ;
#229 = PLANE ( 'NONE',  #35 ) ;
#230 = PRODUCT_DEFINITION_FORMATION_WITH_SPECIFIED_SOURCE ( 'LIBOVOLNÝ', '', #297, .NOT_KNOWN. ) ;
#231 = CC_DESIGN_PERSON_AND_ORGANIZATION_ASSIGNMENT ( #49, #176, ( #65 ) ) ;
#232 = VERTEX_POINT ( 'NONE', #238 ) ;
#233 = ORIENTED_EDGE ( 'NONE', *, *, #207, .F. ) ;
#234 = CARTESIAN_POINT ( 'NONE',  ( -4.000000000000000000, 0.000000000000000000, 0.000000000000000000 ) ) ;
#235 = DIRECTION ( 'NONE',  ( -0.000000000000000000, -0.000000000000000000, -1.000000000000000000 ) ) ;
#236 = APPROVAL ( #2, 'NEURÈENÝ' ) ;
#237 = DIRECTION ( 'NONE',  ( -1.000000000000000000, 0.000000000000000000, 0.000000000000000000 ) ) ;
#238 = CARTESIAN_POINT ( 'NONE',  ( 4.000000000000000000, 4.898587196589412829E-16, 3.000000000000000000 ) ) ;
#239 = DIRECTION ( 'NONE',  ( -0.000000000000000000, -0.000000000000000000, -1.000000000000000000 ) ) ;
#240 = DIRECTION ( 'NONE',  ( 1.000000000000000000, 0.000000000000000000, 0.000000000000000000 ) ) ;
#241 = APPROVAL_DATE_TIME ( #118, #236 ) ;
#242 = CIRCLE ( 'NONE', #299, 4.000000000000000000 ) ;
#243 = COORDINATED_UNIVERSAL_TIME_OFFSET ( 1, 0, .AHEAD. ) ;
#244 = PERSON_AND_ORGANIZATION ( #59, #93 ) ;
#245 = ORIENTED_EDGE ( 'NONE', *, *, #181, .F. ) ;
#246 = AXIS2_PLACEMENT_3D ( 'NONE', #16, #143, #237 ) ;
#247 = ORIENTED_EDGE ( 'NONE', *, *, #254, .F. ) ;
#248 = CARTESIAN_POINT ( 'NONE',  ( 2.000000000000000000, 2.449293598294706414E-16, 163.0000000000000000 ) ) ;
#249 = EDGE_LOOP ( 'NONE', ( #162, #29 ) ) ;
#250 = ORIENTED_EDGE ( 'NONE', *, *, #261, .T. ) ;
#251 = CARTESIAN_POINT ( 'NONE',  ( 4.000000000000000000, 4.898587196589412829E-16, 0.000000000000000000 ) ) ;
#252 = ORIENTED_EDGE ( 'NONE', *, *, #135, .T. ) ;
#253 = ORIENTED_EDGE ( 'NONE', *, *, #130, .T. ) ;
#254 = EDGE_CURVE ( 'NONE', #105, #10, #215, .T. ) ;
#255 = CARTESIAN_POINT ( 'NONE',  ( 2.000000000000000000, 2.449293598294706414E-16, 3.200000000000008171 ) ) ;
#256 = CARTESIAN_POINT ( 'NONE',  ( 0.000000000000000000, 0.000000000000000000, 3.000000000000000000 ) ) ;
#257 = DIRECTION ( 'NONE',  ( 0.000000000000000000, 0.000000000000000000, 1.000000000000000000 ) ) ;
#258 = CARTESIAN_POINT ( 'NONE',  ( 0.000000000000000000, 0.000000000000000000, 163.0000000000000000 ) ) ;
#259 = DIRECTION ( 'NONE',  ( -1.000000000000000000, 0.000000000000000000, 0.000000000000000000 ) ) ;
#260 = DATE_AND_TIME ( #124, #197 ) ;
#261 = EDGE_CURVE ( 'NONE', #10, #188, #149, .T. ) ;
#262 = COORDINATED_UNIVERSAL_TIME_OFFSET ( 1, 0, .AHEAD. ) ;
#263 = COORDINATED_UNIVERSAL_TIME_OFFSET ( 1, 0, .AHEAD. ) ;
#264 = DESIGN_CONTEXT ( 'detailed design', #182, 'design' ) ;
#265 = ORIENTED_EDGE ( 'NONE', *, *, #23, .F. ) ;
#266 = CARTESIAN_POINT ( 'NONE',  ( 2.200000000000000178, 0.000000000000000000, 3.200000000000008171 ) ) ;
#267 = ORIENTED_EDGE ( 'NONE', *, *, #141, .F. ) ;
#268 = CARTESIAN_POINT ( 'NONE',  ( -2.000000000000000000, 0.000000000000000000, 3.200000000000008171 ) ) ;
#269 = ORIENTED_EDGE ( 'NONE', *, *, #86, .F. ) ;
#270 = LINE ( 'NONE', #205, #193 ) ;
#271 = EDGE_LOOP ( 'NONE', ( #77, #156 ) ) ;
#272 = AXIS2_PLACEMENT_3D ( 'NONE', #163, #84, #140 ) ;
#273 = ADVANCED_FACE ( 'NONE', ( #279 ), #91, .T. ) ;
#274 = ORIENTED_EDGE ( 'NONE', *, *, #261, .F. ) ;
#275 = AXIS2_PLACEMENT_3D ( 'NONE', #13, #85, #58 ) ;
#276 = FACE_BOUND ( 'NONE', #249, .T. ) ;
#277 = DIRECTION ( 'NONE',  ( 1.000000000000000000, 0.000000000000000000, -0.000000000000000000 ) ) ;
#278 = CIRCLE ( 'NONE', #174, 2.200000000000000178 ) ;
#279 = FACE_OUTER_BOUND ( 'NONE', #79, .T. ) ;
#280 = ADVANCED_FACE ( 'NONE', ( #276, #110 ), #21, .T. ) ;
#281 = TOROIDAL_SURFACE ( 'NONE', #166, 2.200000000000000178, 0.2000000000000000111 ) ;
#282 = CARTESIAN_POINT ( 'NONE',  ( 0.000000000000000000, 0.000000000000000000, 0.000000000000000000 ) ) ;
#283 = CIRCLE ( 'NONE', #3, 4.000000000000000000 ) ;
#284 = PERSON_AND_ORGANIZATION_ROLE ( 'design_owner' ) ;
#285 = MECHANICAL_CONTEXT ( 'NONE', #57, 'mechanical' ) ;
#286 = ADVANCED_FACE ( 'NONE', ( #89 ), #144, .T. ) ;
#287 = ORIENTED_EDGE ( 'NONE', *, *, #130, .F. ) ;
#288 = DIRECTION ( 'NONE',  ( 0.000000000000000000, 0.000000000000000000, 1.000000000000000000 ) ) ;
#289 = FACE_OUTER_BOUND ( 'NONE', #56, .T. ) ;
#290 = ORIENTED_EDGE ( 'NONE', *, *, #254, .T. ) ;
#291 = CALENDAR_DATE ( 2022, 7, 7 ) ;
#292 = CARTESIAN_POINT ( 'NONE',  ( -4.000000000000000000, 0.000000000000000000, 3.000000000000000000 ) ) ;
#293 = TOROIDAL_SURFACE ( 'NONE', #69, 2.200000000000000178, 0.2000000000000000111 ) ;
#294 = ORIENTED_EDGE ( 'NONE', *, *, #135, .F. ) ;
#295 = VERTEX_POINT ( 'NONE', #255 ) ;
#296 = CC_DESIGN_PERSON_AND_ORGANIZATION_ASSIGNMENT ( #221, #284, ( #297 ) ) ;
#297 = PRODUCT ( 'ba6e', 'ba6e', '', ( #285 ) ) ;
#298 = DIRECTION ( 'NONE',  ( 1.000000000000000000, 0.000000000000000000, 0.000000000000000000 ) ) ;
#299 = AXIS2_PLACEMENT_3D ( 'NONE', #90, #257, #240 ) ;
#300 =( GEOMETRIC_REPRESENTATION_CONTEXT ( 3 ) GLOBAL_UNCERTAINTY_ASSIGNED_CONTEXT ( ( #128 ) ) GLOBAL_UNIT_ASSIGNED_CONTEXT ( ( #306, #64, #148 ) ) REPRESENTATION_CONTEXT ( 'NONE', 'WORKASPACE' ) );
#301 = DIRECTION ( 'NONE',  ( 1.000000000000000000, 0.000000000000000000, -0.000000000000000000 ) ) ;
#302 = DIRECTION ( 'NONE',  ( -1.000000000000000000, 0.000000000000000000, 0.000000000000000000 ) ) ;
#303 = ADVANCED_FACE ( 'NONE', ( #198 ), #115, .T. ) ;
#304 = CYLINDRICAL_SURFACE ( 'NONE', #246, 4.000000000000000000 ) ;
#305 = DIRECTION ( 'NONE',  ( -1.000000000000000000, 0.000000000000000000, 0.000000000000000000 ) ) ;
#306 =( LENGTH_UNIT ( ) NAMED_UNIT ( * ) SI_UNIT ( .MILLI., .METRE. ) );
#307 = PERSON_AND_ORGANIZATION ( #59, #93 ) ;
ENDSEC;
END-ISO-10303-21;
