ISO-10303-21;
HEADER;
FILE_DESCRIPTION (( 'STEP AP203' ),
    '1' );
FILE_NAME ('9217.STEP',
    '2023-02-12T11:48:05',
    ( '' ),
    ( '' ),
    'SwSTEP 2.0',
    'SolidWorks 2019',
    '' );
FILE_SCHEMA (( 'CONFIG_CONTROL_DESIGN' ));
ENDSEC;

DATA;
#1 = PERSON_AND_ORGANIZATION_ROLE ( 'creator' ) ;
#2 = DIRECTION ( 'NONE',  ( -1.000000000000000000, 0.000000000000000000, 0.000000000000000000 ) ) ;
#3 = COORDINATED_UNIVERSAL_TIME_OFFSET ( 1, 0, .AHEAD. ) ;
#4 = VERTEX_POINT ( 'NONE', #177 ) ;
#5 = CARTESIAN_POINT ( 'NONE',  ( 0.000000000000000000, 0.000000000000000000, 5.000000000000000000 ) ) ;
#6 = LOCAL_TIME ( 12, 48, 5.000000000000000000, #3 ) ;
#7 = DIRECTION ( 'NONE',  ( 1.000000000000000000, 0.000000000000000000, 0.000000000000000000 ) ) ;
#8 = VERTEX_POINT ( 'NONE', #81 ) ;
#9 = DIRECTION ( 'NONE',  ( 0.000000000000000000, 0.000000000000000000, 1.000000000000000000 ) ) ;
#10 = PERSON_AND_ORGANIZATION ( #212, #55 ) ;
#11 = FACE_OUTER_BOUND ( 'NONE', #219, .T. ) ;
#12 = CIRCLE ( 'NONE', #90, 7.000000000000000000 ) ;
#13 = VECTOR ( 'NONE', #34, 1000.000000000000000 ) ;
#14 = UNCERTAINTY_MEASURE_WITH_UNIT (LENGTH_MEASURE( 1.000000000000000082E-05 ), #101, 'distance_accuracy_value', 'NONE');
#15 = LOCAL_TIME ( 12, 48, 5.000000000000000000, #109 ) ;
#16 = CC_DESIGN_DATE_AND_TIME_ASSIGNMENT ( #67, #155, ( #135 ) ) ;
#17 =( NAMED_UNIT ( * ) PLANE_ANGLE_UNIT ( ) SI_UNIT ( $, .RADIAN. ) );
#18 = CYLINDRICAL_SURFACE ( 'NONE', #50, 4.000000000000000000 ) ;
#19 = PERSON_AND_ORGANIZATION ( #212, #55 ) ;
#20 = DIRECTION ( 'NONE',  ( 0.000000000000000000, 0.000000000000000000, 1.000000000000000000 ) ) ;
#21 = SECURITY_CLASSIFICATION_LEVEL ( 'unclassified' ) ;
#22 = ORIENTED_EDGE ( 'NONE', *, *, #92, .T. ) ;
#23 = LOCAL_TIME ( 12, 48, 5.000000000000000000, #132 ) ;
#24 = ADVANCED_FACE ( 'NONE', ( #179 ), #144, .T. ) ;
#25 = PERSON_AND_ORGANIZATION_ROLE ( 'design_supplier' ) ;
#26 = DIRECTION ( 'NONE',  ( -1.000000000000000000, 0.000000000000000000, 0.000000000000000000 ) ) ;
#27 = ORIENTED_EDGE ( 'NONE', *, *, #245, .T. ) ;
#28 = DIRECTION ( 'NONE',  ( 1.000000000000000000, 0.000000000000000000, 0.000000000000000000 ) ) ;
#29 = ORIENTED_EDGE ( 'NONE', *, *, #72, .T. ) ;
#30 = DIRECTION ( 'NONE',  ( -0.000000000000000000, -0.000000000000000000, -1.000000000000000000 ) ) ;
#31 = ORIENTED_EDGE ( 'NONE', *, *, #72, .F. ) ;
#32 = AXIS2_PLACEMENT_3D ( 'NONE', #186, #9, #7 ) ;
#33 = CIRCLE ( 'NONE', #250, 4.000000000000000000 ) ;
#34 = DIRECTION ( 'NONE',  ( -0.000000000000000000, -0.000000000000000000, -1.000000000000000000 ) ) ;
#35 = PLANE ( 'NONE',  #246 ) ;
#36 = LINE ( 'NONE', #57, #63 ) ;
#37 = APPLICATION_PROTOCOL_DEFINITION ( 'international standard', 'config_control_design', 1994, #65 ) ;
#38 = ORIENTED_EDGE ( 'NONE', *, *, #136, .F. ) ;
#39 = CALENDAR_DATE ( 2023, 12, 2 ) ;
#40 = DIRECTION ( 'NONE',  ( 1.000000000000000000, 0.000000000000000000, 0.000000000000000000 ) ) ;
#41 = ADVANCED_FACE ( 'NONE', ( #255 ), #77, .F. ) ;
#42 = AXIS2_PLACEMENT_3D ( 'NONE', #5, #166, #214 ) ;
#43 = DIRECTION ( 'NONE',  ( 0.000000000000000000, 0.000000000000000000, 1.000000000000000000 ) ) ;
#44 = ORIENTED_EDGE ( 'NONE', *, *, #121, .T. ) ;
#45 = CC_DESIGN_PERSON_AND_ORGANIZATION_ASSIGNMENT ( #163, #1, ( #206 ) ) ;
#46 = CARTESIAN_POINT ( 'NONE',  ( 0.000000000000000000, 0.000000000000000000, 0.000000000000000000 ) ) ;
#47 = CALENDAR_DATE ( 2023, 12, 2 ) ;
#48 = PERSON_AND_ORGANIZATION ( #212, #55 ) ;
#49 = EDGE_CURVE ( 'NONE', #4, #8, #78, .T. ) ;
#50 = AXIS2_PLACEMENT_3D ( 'NONE', #99, #198, #2 ) ;
#51 = AXIS2_PLACEMENT_3D ( 'NONE', #211, #251, #140 ) ;
#52 = CARTESIAN_POINT ( 'NONE',  ( 4.000000000000000000, 4.898587196589412829E-16, 500.0000000000000000 ) ) ;
#53 = DIRECTION ( 'NONE',  ( -0.000000000000000000, -0.000000000000000000, -1.000000000000000000 ) ) ;
#54 = APPROVAL_ROLE ( '' ) ;
#55 = ORGANIZATION ( 'NEURÈENÝ', 'NEURÈENÝ', '' ) ;
#56 = DIRECTION ( 'NONE',  ( 0.000000000000000000, 0.000000000000000000, 1.000000000000000000 ) ) ;
#57 = CARTESIAN_POINT ( 'NONE',  ( -4.000000000000000000, 0.000000000000000000, 500.0000000000000000 ) ) ;
#58 = DIRECTION ( 'NONE',  ( 1.000000000000000000, 0.000000000000000000, 0.000000000000000000 ) ) ;
#59 = APPROVAL_DATE_TIME ( #85, #98 ) ;
#60 = ADVANCED_FACE ( 'NONE', ( #197 ), #18, .T. ) ;
#61 = DATE_TIME_ROLE ( 'creation_date' ) ;
#62 = DIRECTION ( 'NONE',  ( 0.000000000000000000, 0.000000000000000000, 1.000000000000000000 ) ) ;
#63 = VECTOR ( 'NONE', #53, 1000.000000000000000 ) ;
#64 = APPROVAL_PERSON_ORGANIZATION ( #71, #172, #233 ) ;
#65 = APPLICATION_CONTEXT ( 'configuration controlled 3d designs of mechanical parts and assemblies' ) ;
#66 = CYLINDRICAL_SURFACE ( 'NONE', #119, 7.000000000000000000 ) ;
#67 = DATE_AND_TIME ( #192, #15 ) ;
#68 = VERTEX_POINT ( 'NONE', #79 ) ;
#69 = CALENDAR_DATE ( 2023, 12, 2 ) ;
#70 = FACE_OUTER_BOUND ( 'NONE', #97, .T. ) ;
#71 = PERSON_AND_ORGANIZATION ( #212, #55 ) ;
#72 = EDGE_CURVE ( 'NONE', #204, #110, #229, .T. ) ;
#73 =( GEOMETRIC_REPRESENTATION_CONTEXT ( 3 ) GLOBAL_UNCERTAINTY_ASSIGNED_CONTEXT ( ( #14 ) ) GLOBAL_UNIT_ASSIGNED_CONTEXT ( ( #101, #17, #96 ) ) REPRESENTATION_CONTEXT ( 'NONE', 'WORKASPACE' ) );
#74 = MECHANICAL_CONTEXT ( 'NONE', #65, 'mechanical' ) ;
#75 = ORIENTED_EDGE ( 'NONE', *, *, #83, .T. ) ;
#76 = APPROVAL_STATUS ( 'not_yet_approved' ) ;
#77 = PLANE ( 'NONE',  #134 ) ;
#78 = CIRCLE ( 'NONE', #208, 4.000000000000000000 ) ;
#79 = CARTESIAN_POINT ( 'NONE',  ( -7.000000000000000000, 0.000000000000000000, 5.000000000000000000 ) ) ;
#80 = ADVANCED_FACE ( 'NONE', ( #239 ), #149, .T. ) ;
#81 = CARTESIAN_POINT ( 'NONE',  ( -4.000000000000000000, 0.000000000000000000, 500.0000000000000000 ) ) ;
#82 = EDGE_LOOP ( 'NONE', ( #133, #27, #29, #180 ) ) ;
#83 = EDGE_CURVE ( 'NONE', #112, #207, #12, .T. ) ;
#84 = CIRCLE ( 'NONE', #51, 7.000000000000000000 ) ;
#85 = DATE_AND_TIME ( #47, #23 ) ;
#86 = FACE_OUTER_BOUND ( 'NONE', #191, .T. ) ;
#87 = ORIENTED_EDGE ( 'NONE', *, *, #121, .F. ) ;
#88 = FACE_BOUND ( 'NONE', #194, .T. ) ;
#89 = CC_DESIGN_APPROVAL ( #172, ( #135 ) ) ;
#90 = AXIS2_PLACEMENT_3D ( 'NONE', #106, #169, #152 ) ;
#91 = PRODUCT_DEFINITION_SHAPE ( 'NONE', 'NONE',  #206 ) ;
#92 = EDGE_CURVE ( 'NONE', #207, #112, #122, .T. ) ;
#93 = CARTESIAN_POINT ( 'NONE',  ( 0.000000000000000000, 0.000000000000000000, 500.0000000000000000 ) ) ;
#94 = DIRECTION ( 'NONE',  ( 0.000000000000000000, 0.000000000000000000, 1.000000000000000000 ) ) ;
#95 = EDGE_CURVE ( 'NONE', #216, #68, #128, .T. ) ;
#96 =( NAMED_UNIT ( * ) SI_UNIT ( $, .STERADIAN. ) SOLID_ANGLE_UNIT ( ) );
#97 = EDGE_LOOP ( 'NONE', ( #124, #141 ) ) ;
#98 = APPROVAL ( #202, 'NEURÈENÝ' ) ;
#99 = CARTESIAN_POINT ( 'NONE',  ( 0.000000000000000000, 0.000000000000000000, 500.0000000000000000 ) ) ;
#100 = CLOSED_SHELL ( 'NONE', ( #80, #161, #24, #118, #41, #60, #236 ) ) ;
#101 =( LENGTH_UNIT ( ) NAMED_UNIT ( * ) SI_UNIT ( .MILLI., .METRE. ) );
#102 = ORIENTED_EDGE ( 'NONE', *, *, #95, .F. ) ;
#103 = CARTESIAN_POINT ( 'NONE',  ( -4.000000000000000000, 0.000000000000000000, 5.000000000000000000 ) ) ;
#104 = ORIENTED_EDGE ( 'NONE', *, *, #83, .F. ) ;
#105 = PERSON_AND_ORGANIZATION ( #212, #55 ) ;
#106 = CARTESIAN_POINT ( 'NONE',  ( 0.000000000000000000, 0.000000000000000000, 0.000000000000000000 ) ) ;
#107 = APPROVAL_PERSON_ORGANIZATION ( #10, #98, #150 ) ;
#108 = ORIENTED_EDGE ( 'NONE', *, *, #92, .F. ) ;
#109 = COORDINATED_UNIVERSAL_TIME_OFFSET ( 1, 0, .AHEAD. ) ;
#110 = VERTEX_POINT ( 'NONE', #103 ) ;
#111 = CARTESIAN_POINT ( 'NONE',  ( -7.000000000000000000, 0.000000000000000000, 5.000000000000000000 ) ) ;
#112 = VERTEX_POINT ( 'NONE', #185 ) ;
#113 = APPROVAL_DATE_TIME ( #209, #172 ) ;
#114 = DIRECTION ( 'NONE',  ( -1.000000000000000000, 0.000000000000000000, 0.000000000000000000 ) ) ;
#115 = AXIS2_PLACEMENT_3D ( 'NONE', #162, #43, #58 ) ;
#116 = ORIENTED_EDGE ( 'NONE', *, *, #95, .T. ) ;
#117 = ORIENTED_EDGE ( 'NONE', *, *, #195, .T. ) ;
#118 = ADVANCED_FACE ( 'NONE', ( #88, #86 ), #244, .T. ) ;
#119 = AXIS2_PLACEMENT_3D ( 'NONE', #138, #30, #114 ) ;
#120 = CARTESIAN_POINT ( 'NONE',  ( 7.000000000000000000, 8.572527594031473190E-16, 5.000000000000000000 ) ) ;
#121 = EDGE_CURVE ( 'NONE', #110, #204, #33, .T. ) ;
#122 = CIRCLE ( 'NONE', #215, 7.000000000000000000 ) ;
#123 = DIRECTION ( 'NONE',  ( 0.000000000000000000, 0.000000000000000000, 1.000000000000000000 ) ) ;
#124 = ORIENTED_EDGE ( 'NONE', *, *, #200, .T. ) ;
#125 = ORIENTED_EDGE ( 'NONE', *, *, #252, .T. ) ;
#126 = CARTESIAN_POINT ( 'NONE',  ( 0.000000000000000000, 0.000000000000000000, 0.000000000000000000 ) ) ;
#127 = DIRECTION ( 'NONE',  ( 1.000000000000000000, 0.000000000000000000, -0.000000000000000000 ) ) ;
#128 = CIRCLE ( 'NONE', #32, 7.000000000000000000 ) ;
#129 = CC_DESIGN_PERSON_AND_ORGANIZATION_ASSIGNMENT ( #48, #205, ( #217 ) ) ;
#130 = AXIS2_PLACEMENT_3D ( 'NONE', #93, #94, #232 ) ;
#131 = CARTESIAN_POINT ( 'NONE',  ( 0.000000000000000000, 0.000000000000000000, 500.0000000000000000 ) ) ;
#132 = COORDINATED_UNIVERSAL_TIME_OFFSET ( 1, 0, .AHEAD. ) ;
#133 = ORIENTED_EDGE ( 'NONE', *, *, #49, .F. ) ;
#134 = AXIS2_PLACEMENT_3D ( 'NONE', #148, #235, #127 ) ;
#135 = SECURITY_CLASSIFICATION ( '', '', #21 ) ;
#136 = EDGE_CURVE ( 'NONE', #68, #112, #203, .T. ) ;
#137 = DIRECTION ( 'NONE',  ( 0.000000000000000000, 0.000000000000000000, 1.000000000000000000 ) ) ;
#138 = CARTESIAN_POINT ( 'NONE',  ( 0.000000000000000000, 0.000000000000000000, 5.000000000000000000 ) ) ;
#139 = CARTESIAN_POINT ( 'NONE',  ( 7.000000000000000000, 8.572527594031473190E-16, 0.000000000000000000 ) ) ;
#140 = DIRECTION ( 'NONE',  ( 1.000000000000000000, 0.000000000000000000, 0.000000000000000000 ) ) ;
#141 = ORIENTED_EDGE ( 'NONE', *, *, #49, .T. ) ;
#142 = COORDINATED_UNIVERSAL_TIME_OFFSET ( 1, 0, .AHEAD. ) ;
#143 = DIRECTION ( 'NONE',  ( -0.000000000000000000, -0.000000000000000000, -1.000000000000000000 ) ) ;
#144 = CYLINDRICAL_SURFACE ( 'NONE', #42, 7.000000000000000000 ) ;
#145 = DATE_AND_TIME ( #39, #6 ) ;
#146 = MANIFOLD_SOLID_BREP ( 'Pøidat vysunutím3', #100 ) ;
#147 = PERSON_AND_ORGANIZATION ( #212, #55 ) ;
#148 = CARTESIAN_POINT ( 'NONE',  ( 0.000000000000000000, 0.000000000000000000, 0.000000000000000000 ) ) ;
#149 = CYLINDRICAL_SURFACE ( 'NONE', #247, 4.000000000000000000 ) ;
#150 = APPROVAL_ROLE ( '' ) ;
#151 = ORIENTED_EDGE ( 'NONE', *, *, #245, .F. ) ;
#152 = DIRECTION ( 'NONE',  ( 1.000000000000000000, 0.000000000000000000, 0.000000000000000000 ) ) ;
#153 = CC_DESIGN_DATE_AND_TIME_ASSIGNMENT ( #241, #61, ( #206 ) ) ;
#154 = DIRECTION ( 'NONE',  ( 1.000000000000000000, 0.000000000000000000, -0.000000000000000000 ) ) ;
#155 = DATE_TIME_ROLE ( 'classification_date' ) ;
#156 = CC_DESIGN_APPROVAL ( #165, ( #206 ) ) ;
#157 = APPROVAL_STATUS ( 'not_yet_approved' ) ;
#158 = LINE ( 'NONE', #249, #13 ) ;
#159 = AXIS2_PLACEMENT_3D ( 'NONE', #248, #62, #154 ) ;
#160 = VECTOR ( 'NONE', #143, 1000.000000000000000 ) ;
#161 = ADVANCED_FACE ( 'NONE', ( #11 ), #66, .T. ) ;
#162 = CARTESIAN_POINT ( 'NONE',  ( 0.000000000000000000, 0.000000000000000000, 5.000000000000000000 ) ) ;
#163 = PERSON_AND_ORGANIZATION ( #212, #55 ) ;
#164 = CARTESIAN_POINT ( 'NONE',  ( 0.000000000000000000, 0.000000000000000000, 500.0000000000000000 ) ) ;
#165 = APPROVAL ( #76, 'NEURÈENÝ' ) ;
#166 = DIRECTION ( 'NONE',  ( -0.000000000000000000, -0.000000000000000000, -1.000000000000000000 ) ) ;
#167 = VECTOR ( 'NONE', #187, 1000.000000000000000 ) ;
#168 = LOCAL_TIME ( 12, 48, 5.000000000000000000, #142 ) ;
#169 = DIRECTION ( 'NONE',  ( 0.000000000000000000, 0.000000000000000000, 1.000000000000000000 ) ) ;
#170 = EDGE_LOOP ( 'NONE', ( #221, #220, #253, #75 ) ) ;
#171 = DESIGN_CONTEXT ( 'detailed design', #240, 'design' ) ;
#172 = APPROVAL ( #157, 'NEURÈENÝ' ) ;
#173 = DIRECTION ( 'NONE',  ( 0.000000000000000000, 0.000000000000000000, 1.000000000000000000 ) ) ;
#174 = CC_DESIGN_PERSON_AND_ORGANIZATION_ASSIGNMENT ( #243, #25, ( #217 ) ) ;
#175 = CIRCLE ( 'NONE', #130, 4.000000000000000000 ) ;
#176 = PERSON_AND_ORGANIZATION_ROLE ( 'design_owner' ) ;
#177 = CARTESIAN_POINT ( 'NONE',  ( 4.000000000000000000, 4.898587196589412829E-16, 500.0000000000000000 ) ) ;
#178 = APPROVAL_DATE_TIME ( #145, #165 ) ;
#179 = FACE_OUTER_BOUND ( 'NONE', #170, .T. ) ;
#180 = ORIENTED_EDGE ( 'NONE', *, *, #252, .F. ) ;
#181 = CC_DESIGN_SECURITY_CLASSIFICATION ( #135, ( #217 ) ) ;
#182 = PRODUCT_RELATED_PRODUCT_CATEGORY ( 'detail', '', ( #242 ) ) ;
#183 = PERSON_AND_ORGANIZATION_ROLE ( 'classification_officer' ) ;
#184 = LOCAL_TIME ( 12, 48, 5.000000000000000000, #238 ) ;
#185 = CARTESIAN_POINT ( 'NONE',  ( -7.000000000000000000, 0.000000000000000000, 0.000000000000000000 ) ) ;
#186 = CARTESIAN_POINT ( 'NONE',  ( 0.000000000000000000, 0.000000000000000000, 5.000000000000000000 ) ) ;
#187 = DIRECTION ( 'NONE',  ( -0.000000000000000000, -0.000000000000000000, -1.000000000000000000 ) ) ;
#188 = EDGE_LOOP ( 'NONE', ( #151, #201, #125, #44 ) ) ;
#189 = SHAPE_DEFINITION_REPRESENTATION ( #91, #193 ) ;
#190 = DIRECTION ( 'NONE',  ( 1.000000000000000000, 0.000000000000000000, 0.000000000000000000 ) ) ;
#191 = EDGE_LOOP ( 'NONE', ( #117, #116 ) ) ;
#192 = CALENDAR_DATE ( 2023, 12, 2 ) ;
#193 = ADVANCED_BREP_SHAPE_REPRESENTATION ( '9217', ( #146, #230 ), #73 ) ;
#194 = EDGE_LOOP ( 'NONE', ( #87, #31 ) ) ;
#195 = EDGE_CURVE ( 'NONE', #68, #216, #84, .T. ) ;
#196 = CARTESIAN_POINT ( 'NONE',  ( 0.000000000000000000, 0.000000000000000000, 500.0000000000000000 ) ) ;
#197 = FACE_OUTER_BOUND ( 'NONE', #188, .T. ) ;
#198 = DIRECTION ( 'NONE',  ( -0.000000000000000000, -0.000000000000000000, -1.000000000000000000 ) ) ;
#199 = DIRECTION ( 'NONE',  ( -0.000000000000000000, -0.000000000000000000, -1.000000000000000000 ) ) ;
#200 = EDGE_CURVE ( 'NONE', #8, #4, #175, .T. ) ;
#201 = ORIENTED_EDGE ( 'NONE', *, *, #200, .F. ) ;
#202 = APPROVAL_STATUS ( 'not_yet_approved' ) ;
#203 = LINE ( 'NONE', #111, #167 ) ;
#204 = VERTEX_POINT ( 'NONE', #228 ) ;
#205 = PERSON_AND_ORGANIZATION_ROLE ( 'creator' ) ;
#206 = PRODUCT_DEFINITION ( 'NEZNÁMÝ', '', #217, #171 ) ;
#207 = VERTEX_POINT ( 'NONE', #139 ) ;
#208 = AXIS2_PLACEMENT_3D ( 'NONE', #164, #56, #40 ) ;
#209 = DATE_AND_TIME ( #69, #168 ) ;
#210 = CC_DESIGN_PERSON_AND_ORGANIZATION_ASSIGNMENT ( #19, #176, ( #242 ) ) ;
#211 = CARTESIAN_POINT ( 'NONE',  ( 0.000000000000000000, 0.000000000000000000, 5.000000000000000000 ) ) ;
#212 = PERSON ( 'NEURÈENÝ', 'NEURÈENÝ', 'NEURÈENÝ', ('NEURÈENÝ'), ('NEURÈENÝ'), ('NEURÈENÝ') ) ;
#213 = LINE ( 'NONE', #52, #160 ) ;
#214 = DIRECTION ( 'NONE',  ( -1.000000000000000000, 0.000000000000000000, 0.000000000000000000 ) ) ;
#215 = AXIS2_PLACEMENT_3D ( 'NONE', #46, #20, #190 ) ;
#216 = VERTEX_POINT ( 'NONE', #120 ) ;
#217 = PRODUCT_DEFINITION_FORMATION_WITH_SPECIFIED_SOURCE ( 'LIBOVOLNÝ', '', #242, .NOT_KNOWN. ) ;
#218 = DIRECTION ( 'NONE',  ( 1.000000000000000000, 0.000000000000000000, 0.000000000000000000 ) ) ;
#219 = EDGE_LOOP ( 'NONE', ( #102, #224, #22, #38 ) ) ;
#220 = ORIENTED_EDGE ( 'NONE', *, *, #195, .F. ) ;
#221 = ORIENTED_EDGE ( 'NONE', *, *, #223, .F. ) ;
#222 = APPROVAL_PERSON_ORGANIZATION ( #147, #165, #54 ) ;
#223 = EDGE_CURVE ( 'NONE', #216, #207, #158, .T. ) ;
#224 = ORIENTED_EDGE ( 'NONE', *, *, #223, .T. ) ;
#225 = CARTESIAN_POINT ( 'NONE',  ( 0.000000000000000000, 0.000000000000000000, 5.000000000000000000 ) ) ;
#226 = CALENDAR_DATE ( 2023, 12, 2 ) ;
#227 = EDGE_LOOP ( 'NONE', ( #104, #108 ) ) ;
#228 = CARTESIAN_POINT ( 'NONE',  ( 4.000000000000000000, 4.898587196589412829E-16, 5.000000000000000000 ) ) ;
#229 = CIRCLE ( 'NONE', #115, 4.000000000000000000 ) ;
#230 = AXIS2_PLACEMENT_3D ( 'NONE', #126, #123, #218 ) ;
#231 = CC_DESIGN_PERSON_AND_ORGANIZATION_ASSIGNMENT ( #105, #183, ( #135 ) ) ;
#232 = DIRECTION ( 'NONE',  ( 1.000000000000000000, 0.000000000000000000, 0.000000000000000000 ) ) ;
#233 = APPROVAL_ROLE ( '' ) ;
#234 = DIRECTION ( 'NONE',  ( 1.000000000000000000, 0.000000000000000000, -0.000000000000000000 ) ) ;
#235 = DIRECTION ( 'NONE',  ( 0.000000000000000000, 0.000000000000000000, 1.000000000000000000 ) ) ;
#236 = ADVANCED_FACE ( 'NONE', ( #70 ), #35, .T. ) ;
#237 = CC_DESIGN_APPROVAL ( #98, ( #217 ) ) ;
#238 = COORDINATED_UNIVERSAL_TIME_OFFSET ( 1, 0, .AHEAD. ) ;
#239 = FACE_OUTER_BOUND ( 'NONE', #82, .T. ) ;
#240 = APPLICATION_CONTEXT ( 'configuration controlled 3d designs of mechanical parts and assemblies' ) ;
#241 = DATE_AND_TIME ( #226, #184 ) ;
#242 = PRODUCT ( '9217', '9217', '', ( #74 ) ) ;
#243 = PERSON_AND_ORGANIZATION ( #212, #55 ) ;
#244 = PLANE ( 'NONE',  #159 ) ;
#245 = EDGE_CURVE ( 'NONE', #4, #204, #213, .T. ) ;
#246 = AXIS2_PLACEMENT_3D ( 'NONE', #196, #173, #234 ) ;
#247 = AXIS2_PLACEMENT_3D ( 'NONE', #131, #199, #26 ) ;
#248 = CARTESIAN_POINT ( 'NONE',  ( 0.000000000000000000, 0.000000000000000000, 5.000000000000000000 ) ) ;
#249 = CARTESIAN_POINT ( 'NONE',  ( 7.000000000000000000, 8.572527594031473190E-16, 5.000000000000000000 ) ) ;
#250 = AXIS2_PLACEMENT_3D ( 'NONE', #225, #137, #28 ) ;
#251 = DIRECTION ( 'NONE',  ( 0.000000000000000000, 0.000000000000000000, 1.000000000000000000 ) ) ;
#252 = EDGE_CURVE ( 'NONE', #8, #110, #36, .T. ) ;
#253 = ORIENTED_EDGE ( 'NONE', *, *, #136, .T. ) ;
#254 = APPLICATION_PROTOCOL_DEFINITION ( 'international standard', 'config_control_design', 1994, #240 ) ;
#255 = FACE_OUTER_BOUND ( 'NONE', #227, .T. ) ;
ENDSEC;
END-ISO-10303-21;
