ISO-10303-21;
HEADER;
FILE_DESCRIPTION (( 'STEP AP203' ),
    '1' );
FILE_NAME ('7dc2.STEP',
    '2022-07-07T10:08:23',
    ( '' ),
    ( '' ),
    'SwSTEP 2.0',
    'SolidWorks 2019',
    '' );
FILE_SCHEMA (( 'CONFIG_CONTROL_DESIGN' ));
ENDSEC;

DATA;
#1 = CARTESIAN_POINT ( 'NONE',  ( 0.000000000000000000, 0.000000000000000000, 5.000000000000000000 ) ) ;
#2 = DIRECTION ( 'NONE',  ( 1.000000000000000000, 0.000000000000000000, 0.000000000000000000 ) ) ;
#3 = CC_DESIGN_SECURITY_CLASSIFICATION ( #207, ( #177 ) ) ;
#4 = AXIS2_PLACEMENT_3D ( 'NONE', #15, #284, #46 ) ;
#5 = PERSON_AND_ORGANIZATION_ROLE ( 'classification_officer' ) ;
#6 = AXIS2_PLACEMENT_3D ( 'NONE', #1, #116, #90 ) ;
#7 = CC_DESIGN_APPROVAL ( #25, ( #134 ) ) ;
#8 = COORDINATED_UNIVERSAL_TIME_OFFSET ( 1, 0, .AHEAD. ) ;
#9 = ORIENTED_EDGE ( 'NONE', *, *, #260, .T. ) ;
#10 = APPROVAL_STATUS ( 'not_yet_approved' ) ;
#11 = EDGE_CURVE ( 'NONE', #35, #56, #302, .T. ) ;
#12 = AXIS2_PLACEMENT_3D ( 'NONE', #18, #176, #62 ) ;
#13 = PERSON_AND_ORGANIZATION ( #169, #16 ) ;
#14 = VERTEX_POINT ( 'NONE', #205 ) ;
#15 = CARTESIAN_POINT ( 'NONE',  ( 0.000000000000000000, 0.000000000000000000, 805.0000000000000000 ) ) ;
#16 = ORGANIZATION ( 'NEURÈENÝ', 'NEURÈENÝ', '' ) ;
#17 = CARTESIAN_POINT ( 'NONE',  ( 3.250000000000000444, 3.980102097228898231E-16, 5.199999999999982414 ) ) ;
#18 = CARTESIAN_POINT ( 'NONE',  ( 0.000000000000000000, 0.000000000000000000, 805.0000000000000000 ) ) ;
#19 = FACE_OUTER_BOUND ( 'NONE', #249, .T. ) ;
#20 = CARTESIAN_POINT ( 'NONE',  ( 0.000000000000000000, 0.000000000000000000, 0.000000000000000000 ) ) ;
#21 = APPLICATION_CONTEXT ( 'configuration controlled 3d designs of mechanical parts and assemblies' ) ;
#22 = CYLINDRICAL_SURFACE ( 'NONE', #94, 3.250000000000000444 ) ;
#23 = DIRECTION ( 'NONE',  ( 0.000000000000000000, 0.000000000000000000, 1.000000000000000000 ) ) ;
#24 = CARTESIAN_POINT ( 'NONE',  ( 0.000000000000000000, 0.000000000000000000, 805.0000000000000000 ) ) ;
#25 = APPROVAL ( #265, 'NEURÈENÝ' ) ;
#26 = CIRCLE ( 'NONE', #114, 3.250000000000000444 ) ;
#27 = AXIS2_PLACEMENT_3D ( 'NONE', #181, #156, #108 ) ;
#28 = COORDINATED_UNIVERSAL_TIME_OFFSET ( 1, 0, .AHEAD. ) ;
#29 = DIRECTION ( 'NONE',  ( 1.000000000000000000, 0.000000000000000000, 0.000000000000000000 ) ) ;
#30 = ORIENTED_EDGE ( 'NONE', *, *, #260, .F. ) ;
#31 = ADVANCED_FACE ( 'NONE', ( #252 ), #200, .T. ) ;
#32 = CALENDAR_DATE ( 2022, 7, 7 ) ;
#33 = ORIENTED_EDGE ( 'NONE', *, *, #223, .F. ) ;
#34 = PERSON_AND_ORGANIZATION ( #169, #16 ) ;
#35 = VERTEX_POINT ( 'NONE', #106 ) ;
#36 = ADVANCED_FACE ( 'NONE', ( #67 ), #203, .F. ) ;
#37 = AXIS2_PLACEMENT_3D ( 'NONE', #164, #289, #29 ) ;
#38 = ORIENTED_EDGE ( 'NONE', *, *, #107, .T. ) ;
#39 = DIRECTION ( 'NONE',  ( 0.000000000000000000, 0.000000000000000000, 1.000000000000000000 ) ) ;
#40 = AXIS2_PLACEMENT_3D ( 'NONE', #84, #178, #150 ) ;
#41 = ADVANCED_FACE ( 'NONE', ( #85, #279 ), #180, .T. ) ;
#42 = CARTESIAN_POINT ( 'NONE',  ( -6.000000000000000888, 0.000000000000000000, 5.000000000000000000 ) ) ;
#43 = AXIS2_PLACEMENT_3D ( 'NONE', #232, #111, #142 ) ;
#44 = DIRECTION ( 'NONE',  ( -0.000000000000000000, -0.000000000000000000, -1.000000000000000000 ) ) ;
#45 = DIRECTION ( 'NONE',  ( -1.000000000000000000, 0.000000000000000000, 0.000000000000000000 ) ) ;
#46 = DIRECTION ( 'NONE',  ( 1.000000000000000000, 0.000000000000000000, 0.000000000000000000 ) ) ;
#47 = CC_DESIGN_DATE_AND_TIME_ASSIGNMENT ( #271, #117, ( #134 ) ) ;
#48 = DIRECTION ( 'NONE',  ( -0.000000000000000000, -0.000000000000000000, -1.000000000000000000 ) ) ;
#49 = DIRECTION ( 'NONE',  ( 0.000000000000000000, 0.000000000000000000, 1.000000000000000000 ) ) ;
#50 = DIRECTION ( 'NONE',  ( -1.000000000000000000, 1.224646799147350742E-16, 0.000000000000000000 ) ) ;
#51 = VECTOR ( 'NONE', #44, 1000.000000000000000 ) ;
#52 = PERSON_AND_ORGANIZATION ( #169, #16 ) ;
#53 = ORIENTED_EDGE ( 'NONE', *, *, #179, .F. ) ;
#54 = AXIS2_PLACEMENT_3D ( 'NONE', #24, #49, #185 ) ;
#55 = APPROVAL_ROLE ( '' ) ;
#56 = VERTEX_POINT ( 'NONE', #42 ) ;
#57 = APPROVAL_STATUS ( 'not_yet_approved' ) ;
#58 = ADVANCED_FACE ( 'NONE', ( #65 ), #88, .T. ) ;
#59 = EDGE_LOOP ( 'NONE', ( #166, #290, #146, #225 ) ) ;
#60 = DATE_AND_TIME ( #293, #196 ) ;
#61 = ORIENTED_EDGE ( 'NONE', *, *, #107, .F. ) ;
#62 = DIRECTION ( 'NONE',  ( 1.000000000000000000, 0.000000000000000000, -0.000000000000000000 ) ) ;
#63 = ORIENTED_EDGE ( 'NONE', *, *, #162, .F. ) ;
#64 = ADVANCED_FACE ( 'NONE', ( #19 ), #255, .T. ) ;
#65 = FACE_OUTER_BOUND ( 'NONE', #59, .T. ) ;
#66 = LOCAL_TIME ( 12, 8, 23.00000000000000000, #268 ) ;
#67 = FACE_OUTER_BOUND ( 'NONE', #124, .T. ) ;
#68 = ORIENTED_EDGE ( 'NONE', *, *, #292, .T. ) ;
#69 = LINE ( 'NONE', #70, #257 ) ;
#70 = CARTESIAN_POINT ( 'NONE',  ( 3.250000000000000444, 3.980102097228898231E-16, 805.0000000000000000 ) ) ;
#71 = CC_DESIGN_PERSON_AND_ORGANIZATION_ASSIGNMENT ( #195, #98, ( #177 ) ) ;
#72 = DIRECTION ( 'NONE',  ( 0.000000000000000000, 0.000000000000000000, 1.000000000000000000 ) ) ;
#73 = AXIS2_PLACEMENT_3D ( 'NONE', #86, #298, #301 ) ;
#74 = PERSON_AND_ORGANIZATION ( #169, #16 ) ;
#75 = VERTEX_POINT ( 'NONE', #155 ) ;
#76 = DATE_AND_TIME ( #241, #66 ) ;
#77 = EDGE_LOOP ( 'NONE', ( #99, #102 ) ) ;
#78 = EDGE_CURVE ( 'NONE', #242, #254, #239, .T. ) ;
#79 = ORIENTED_EDGE ( 'NONE', *, *, #78, .F. ) ;
#80 = PERSON_AND_ORGANIZATION ( #169, #16 ) ;
#81 = PLANE ( 'NONE',  #12 ) ;
#82 = AXIS2_PLACEMENT_3D ( 'NONE', #234, #23, #2 ) ;
#83 = LOCAL_TIME ( 12, 8, 23.00000000000000000, #8 ) ;
#84 = CARTESIAN_POINT ( 'NONE',  ( 0.000000000000000000, 0.000000000000000000, 5.000000000000000000 ) ) ;
#85 = FACE_BOUND ( 'NONE', #145, .T. ) ;
#86 = CARTESIAN_POINT ( 'NONE',  ( 0.000000000000000000, 0.000000000000000000, 0.000000000000000000 ) ) ;
#87 = APPLICATION_CONTEXT ( 'configuration controlled 3d designs of mechanical parts and assemblies' ) ;
#88 = CYLINDRICAL_SURFACE ( 'NONE', #202, 3.250000000000000444 ) ;
#89 = DIRECTION ( 'NONE',  ( -0.000000000000000000, -0.000000000000000000, -1.000000000000000000 ) ) ;
#90 = DIRECTION ( 'NONE',  ( 1.000000000000000000, 0.000000000000000000, 0.000000000000000000 ) ) ;
#91 =( LENGTH_UNIT ( ) NAMED_UNIT ( * ) SI_UNIT ( .MILLI., .METRE. ) );
#92 = APPLICATION_PROTOCOL_DEFINITION ( 'international standard', 'config_control_design', 1994, #87 ) ;
#93 = EDGE_CURVE ( 'NONE', #56, #35, #280, .T. ) ;
#94 = AXIS2_PLACEMENT_3D ( 'NONE', #137, #187, #235 ) ;
#95 = SHAPE_DEFINITION_REPRESENTATION ( #273, #188 ) ;
#96 = MECHANICAL_CONTEXT ( 'NONE', #87, 'mechanical' ) ;
#97 = PRODUCT ( '7dc2', '7dc2', '', ( #96 ) ) ;
#98 = PERSON_AND_ORGANIZATION_ROLE ( 'creator' ) ;
#99 = ORIENTED_EDGE ( 'NONE', *, *, #78, .T. ) ;
#100 = APPROVAL_PERSON_ORGANIZATION ( #74, #25, #55 ) ;
#101 = PERSON_AND_ORGANIZATION ( #169, #16 ) ;
#102 = ORIENTED_EDGE ( 'NONE', *, *, #229, .T. ) ;
#103 = PLANE ( 'NONE',  #73 ) ;
#104 = DIRECTION ( 'NONE',  ( 1.000000000000000000, 0.000000000000000000, 0.000000000000000000 ) ) ;
#105 = CARTESIAN_POINT ( 'NONE',  ( 0.000000000000000000, 0.000000000000000000, 5.000000000000000000 ) ) ;
#106 = CARTESIAN_POINT ( 'NONE',  ( 6.000000000000000888, 7.347880794884120722E-16, 5.000000000000000000 ) ) ;
#107 = EDGE_CURVE ( 'NONE', #56, #220, #300, .T. ) ;
#108 = DIRECTION ( 'NONE',  ( -1.000000000000000000, 0.000000000000000000, 0.000000000000000000 ) ) ;
#109 = DIRECTION ( 'NONE',  ( 1.000000000000000000, 0.000000000000000000, 0.000000000000000000 ) ) ;
#110 = CARTESIAN_POINT ( 'NONE',  ( 0.000000000000000000, 0.000000000000000000, 5.000000000000000000 ) ) ;
#111 = DIRECTION ( 'NONE',  ( 0.000000000000000000, 0.000000000000000000, 1.000000000000000000 ) ) ;
#112 = PRODUCT_RELATED_PRODUCT_CATEGORY ( 'detail', '', ( #97 ) ) ;
#113 = CIRCLE ( 'NONE', #231, 3.450000000000000178 ) ;
#114 = AXIS2_PLACEMENT_3D ( 'NONE', #209, #72, #210 ) ;
#115 = CARTESIAN_POINT ( 'NONE',  ( 6.000000000000000888, 7.347880794884120722E-16, 5.000000000000000000 ) ) ;
#116 = DIRECTION ( 'NONE',  ( -0.000000000000000000, -0.000000000000000000, -1.000000000000000000 ) ) ;
#117 = DATE_TIME_ROLE ( 'creation_date' ) ;
#118 = AXIS2_PLACEMENT_3D ( 'NONE', #212, #138, #213 ) ;
#119 = PERSON_AND_ORGANIZATION_ROLE ( 'design_supplier' ) ;
#120 = APPROVAL_PERSON_ORGANIZATION ( #52, #264, #190 ) ;
#121 = ORIENTED_EDGE ( 'NONE', *, *, #297, .F. ) ;
#122 = APPROVAL_DATE_TIME ( #216, #264 ) ;
#123 = EDGE_CURVE ( 'NONE', #242, #14, #226, .T. ) ;
#124 = EDGE_LOOP ( 'NONE', ( #276, #294, #53, #126 ) ) ;
#125 = ORIENTED_EDGE ( 'NONE', *, *, #93, .F. ) ;
#126 = ORIENTED_EDGE ( 'NONE', *, *, #186, .F. ) ;
#127 = VERTEX_POINT ( 'NONE', #17 ) ;
#128 = AXIS2_PLACEMENT_3D ( 'NONE', #250, #39, #104 ) ;
#129 = CARTESIAN_POINT ( 'NONE',  ( 0.000000000000000000, 0.000000000000000000, 5.199999999999982414 ) ) ;
#130 = CARTESIAN_POINT ( 'NONE',  ( 0.000000000000000000, 0.000000000000000000, 5.000000000000000000 ) ) ;
#131 = CIRCLE ( 'NONE', #43, 3.250000000000000444 ) ;
#132 = VECTOR ( 'NONE', #89, 1000.000000000000000 ) ;
#133 = FACE_OUTER_BOUND ( 'NONE', #77, .T. ) ;
#134 = PRODUCT_DEFINITION ( 'NEZNÁMÝ', '', #177, #227 ) ;
#135 = AXIS2_PLACEMENT_3D ( 'NONE', #129, #204, #304 ) ;
#136 = CARTESIAN_POINT ( 'NONE',  ( -3.250000000000000444, 0.000000000000000000, 805.0000000000000000 ) ) ;
#137 = CARTESIAN_POINT ( 'NONE',  ( 0.000000000000000000, 0.000000000000000000, 805.0000000000000000 ) ) ;
#138 = DIRECTION ( 'NONE',  ( 0.000000000000000000, -1.000000000000000000, 0.000000000000000000 ) ) ;
#139 = CLOSED_SHELL ( 'NONE', ( #36, #58, #64, #31, #41, #148, #168, #151, #208 ) ) ;
#140 = CIRCLE ( 'NONE', #6, 3.450000000000000178 ) ;
#141 = CARTESIAN_POINT ( 'NONE',  ( 6.000000000000000888, 7.347880794884120722E-16, 0.000000000000000000 ) ) ;
#142 = DIRECTION ( 'NONE',  ( 1.000000000000000000, 0.000000000000000000, 0.000000000000000000 ) ) ;
#143 = PERSON_AND_ORGANIZATION ( #169, #16 ) ;
#144 = ORIENTED_EDGE ( 'NONE', *, *, #162, .T. ) ;
#145 = EDGE_LOOP ( 'NONE', ( #281, #9 ) ) ;
#146 = ORIENTED_EDGE ( 'NONE', *, *, #251, .T. ) ;
#147 = ORIENTED_EDGE ( 'NONE', *, *, #297, .T. ) ;
#148 = ADVANCED_FACE ( 'NONE', ( #230 ), #103, .F. ) ;
#149 = DIRECTION ( 'NONE',  ( 1.000000000000000000, 0.000000000000000000, 0.000000000000000000 ) ) ;
#150 = DIRECTION ( 'NONE',  ( 1.000000000000000000, 0.000000000000000000, 0.000000000000000000 ) ) ;
#151 = ADVANCED_FACE ( 'NONE', ( #133 ), #81, .T. ) ;
#152 = DIRECTION ( 'NONE',  ( 0.000000000000000000, 0.000000000000000000, 1.000000000000000000 ) ) ;
#153 = LOCAL_TIME ( 12, 8, 23.00000000000000000, #275 ) ;
#154 = UNCERTAINTY_MEASURE_WITH_UNIT (LENGTH_MEASURE( 1.000000000000000082E-05 ), #91, 'distance_accuracy_value', 'NONE');
#155 = CARTESIAN_POINT ( 'NONE',  ( -3.450000000000000178, 4.225031457058368824E-16, 4.999999999999991118 ) ) ;
#156 = DIRECTION ( 'NONE',  ( -0.000000000000000000, -0.000000000000000000, -1.000000000000000000 ) ) ;
#157 = CARTESIAN_POINT ( 'NONE',  ( -3.250000000000000444, 0.000000000000000000, 805.0000000000000000 ) ) ;
#158 = APPROVAL ( #57, 'NEURÈENÝ' ) ;
#159 = CIRCLE ( 'NONE', #54, 3.250000000000000444 ) ;
#160 =( NAMED_UNIT ( * ) PLANE_ANGLE_UNIT ( ) SI_UNIT ( $, .RADIAN. ) );
#161 = DIRECTION ( 'NONE',  ( 0.000000000000000000, 0.000000000000000000, 1.000000000000000000 ) ) ;
#162 = EDGE_CURVE ( 'NONE', #220, #194, #247, .T. ) ;
#163 = LINE ( 'NONE', #115, #132 ) ;
#164 = CARTESIAN_POINT ( 'NONE',  ( 0.000000000000000000, 0.000000000000000000, 0.000000000000000000 ) ) ;
#165 = PERSON_AND_ORGANIZATION_ROLE ( 'design_owner' ) ;
#166 = ORIENTED_EDGE ( 'NONE', *, *, #229, .F. ) ;
#167 = DATE_TIME_ROLE ( 'classification_date' ) ;
#168 = ADVANCED_FACE ( 'NONE', ( #285 ), #22, .T. ) ;
#169 = PERSON ( 'NEURÈENÝ', 'NEURÈENÝ', 'NEURÈENÝ', ('NEURÈENÝ'), ('NEURÈENÝ'), ('NEURÈENÝ') ) ;
#170 = CALENDAR_DATE ( 2022, 7, 7 ) ;
#171 = ORIENTED_EDGE ( 'NONE', *, *, #186, .T. ) ;
#172 = DATE_AND_TIME ( #170, #83 ) ;
#173 = ORIENTED_EDGE ( 'NONE', *, *, #292, .F. ) ;
#174 = APPROVAL_ROLE ( '' ) ;
#175 = EDGE_LOOP ( 'NONE', ( #274, #221, #171, #30 ) ) ;
#176 = DIRECTION ( 'NONE',  ( 0.000000000000000000, 0.000000000000000000, 1.000000000000000000 ) ) ;
#177 = PRODUCT_DEFINITION_FORMATION_WITH_SPECIFIED_SOURCE ( 'LIBOVOLNÝ', '', #97, .NOT_KNOWN. ) ;
#178 = DIRECTION ( 'NONE',  ( 0.000000000000000000, 0.000000000000000000, 1.000000000000000000 ) ) ;
#179 = EDGE_CURVE ( 'NONE', #192, #75, #140, .T. ) ;
#180 = PLANE ( 'NONE',  #262 ) ;
#181 = CARTESIAN_POINT ( 'NONE',  ( 0.000000000000000000, 0.000000000000000000, 5.000000000000000000 ) ) ;
#182 = DIRECTION ( 'NONE',  ( 1.000000000000000000, 0.000000000000000000, -0.000000000000000000 ) ) ;
#183 = CARTESIAN_POINT ( 'NONE',  ( -3.450000000000000178, 4.225031457058368824E-16, 5.199999999999982414 ) ) ;
#184 = CARTESIAN_POINT ( 'NONE',  ( 3.450000000000000178, 0.000000000000000000, 4.999999999999991118 ) ) ;
#185 = DIRECTION ( 'NONE',  ( 1.000000000000000000, 0.000000000000000000, 0.000000000000000000 ) ) ;
#186 = EDGE_CURVE ( 'NONE', #127, #192, #305, .T. ) ;
#187 = DIRECTION ( 'NONE',  ( -0.000000000000000000, -0.000000000000000000, -1.000000000000000000 ) ) ;
#188 = ADVANCED_BREP_SHAPE_REPRESENTATION ( '7dc2', ( #206, #37 ), #215 ) ;
#189 = EDGE_LOOP ( 'NONE', ( #121, #125, #38, #144 ) ) ;
#190 = APPROVAL_ROLE ( '' ) ;
#191 = CC_DESIGN_PERSON_AND_ORGANIZATION_ASSIGNMENT ( #13, #165, ( #97 ) ) ;
#192 = VERTEX_POINT ( 'NONE', #184 ) ;
#193 = SECURITY_CLASSIFICATION_LEVEL ( 'unclassified' ) ;
#194 = VERTEX_POINT ( 'NONE', #141 ) ;
#195 = PERSON_AND_ORGANIZATION ( #169, #16 ) ;
#196 = LOCAL_TIME ( 12, 8, 23.00000000000000000, #28 ) ;
#197 = ORIENTED_EDGE ( 'NONE', *, *, #11, .T. ) ;
#198 = PERSON_AND_ORGANIZATION_ROLE ( 'creator' ) ;
#199 = DIRECTION ( 'NONE',  ( 0.000000000000000000, 0.000000000000000000, 1.000000000000000000 ) ) ;
#200 = CYLINDRICAL_SURFACE ( 'NONE', #211, 6.000000000000000888 ) ;
#201 = DIRECTION ( 'NONE',  ( -0.000000000000000000, -0.000000000000000000, -1.000000000000000000 ) ) ;
#202 = AXIS2_PLACEMENT_3D ( 'NONE', #253, #201, #228 ) ;
#203 = TOROIDAL_SURFACE ( 'NONE', #135, 3.450000000000000178, 0.2000000000000000111 ) ;
#204 = DIRECTION ( 'NONE',  ( 0.000000000000000000, 0.000000000000000000, 1.000000000000000000 ) ) ;
#205 = CARTESIAN_POINT ( 'NONE',  ( -3.250000000000000444, 0.000000000000000000, 5.199999999999982414 ) ) ;
#206 = MANIFOLD_SOLID_BREP ( 'Zaoblit1', #139 ) ;
#207 = SECURITY_CLASSIFICATION ( '', '', #193 ) ;
#208 = ADVANCED_FACE ( 'NONE', ( #259 ), #214, .F. ) ;
#209 = CARTESIAN_POINT ( 'NONE',  ( 0.000000000000000000, 0.000000000000000000, 5.199999999999982414 ) ) ;
#210 = DIRECTION ( 'NONE',  ( 1.000000000000000000, 0.000000000000000000, 0.000000000000000000 ) ) ;
#211 = AXIS2_PLACEMENT_3D ( 'NONE', #283, #222, #45 ) ;
#212 = CARTESIAN_POINT ( 'NONE',  ( 3.450000000000000178, 0.000000000000000000, 5.199999999999982414 ) ) ;
#213 = DIRECTION ( 'NONE',  ( 0.000000000000000000, 0.000000000000000000, -1.000000000000000000 ) ) ;
#214 = TOROIDAL_SURFACE ( 'NONE', #82, 3.450000000000000178, 0.2000000000000000111 ) ;
#215 =( GEOMETRIC_REPRESENTATION_CONTEXT ( 3 ) GLOBAL_UNCERTAINTY_ASSIGNED_CONTEXT ( ( #154 ) ) GLOBAL_UNIT_ASSIGNED_CONTEXT ( ( #91, #160, #256 ) ) REPRESENTATION_CONTEXT ( 'NONE', 'WORKASPACE' ) );
#216 = DATE_AND_TIME ( #295, #270 ) ;
#217 = COORDINATED_UNIVERSAL_TIME_OFFSET ( 1, 0, .AHEAD. ) ;
#218 = ORIENTED_EDGE ( 'NONE', *, *, #123, .T. ) ;
#219 = APPLICATION_PROTOCOL_DEFINITION ( 'international standard', 'config_control_design', 1994, #21 ) ;
#220 = VERTEX_POINT ( 'NONE', #263 ) ;
#221 = ORIENTED_EDGE ( 'NONE', *, *, #251, .F. ) ;
#222 = DIRECTION ( 'NONE',  ( -0.000000000000000000, -0.000000000000000000, -1.000000000000000000 ) ) ;
#223 = EDGE_CURVE ( 'NONE', #254, #127, #69, .T. ) ;
#224 = CIRCLE ( 'NONE', #269, 0.2000000000000000944 ) ;
#225 = ORIENTED_EDGE ( 'NONE', *, *, #123, .F. ) ;
#226 = LINE ( 'NONE', #136, #51 ) ;
#227 = DESIGN_CONTEXT ( 'detailed design', #21, 'design' ) ;
#228 = DIRECTION ( 'NONE',  ( -1.000000000000000000, 0.000000000000000000, 0.000000000000000000 ) ) ;
#229 = EDGE_CURVE ( 'NONE', #254, #242, #159, .T. ) ;
#230 = FACE_OUTER_BOUND ( 'NONE', #267, .T. ) ;
#231 = AXIS2_PLACEMENT_3D ( 'NONE', #110, #307, #109 ) ;
#232 = CARTESIAN_POINT ( 'NONE',  ( 0.000000000000000000, 0.000000000000000000, 5.199999999999982414 ) ) ;
#233 = EDGE_CURVE ( 'NONE', #14, #75, #224, .T. ) ;
#234 = CARTESIAN_POINT ( 'NONE',  ( 0.000000000000000000, 0.000000000000000000, 5.199999999999982414 ) ) ;
#235 = DIRECTION ( 'NONE',  ( -1.000000000000000000, 0.000000000000000000, 0.000000000000000000 ) ) ;
#236 = CC_DESIGN_APPROVAL ( #264, ( #177 ) ) ;
#237 = DIRECTION ( 'NONE',  ( 1.224646799147353207E-16, 1.000000000000000000, -0.000000000000000000 ) ) ;
#238 = APPROVAL_DATE_TIME ( #76, #158 ) ;
#239 = CIRCLE ( 'NONE', #4, 3.250000000000000444 ) ;
#240 = CC_DESIGN_PERSON_AND_ORGANIZATION_ASSIGNMENT ( #34, #119, ( #177 ) ) ;
#241 = CALENDAR_DATE ( 2022, 7, 7 ) ;
#242 = VERTEX_POINT ( 'NONE', #157 ) ;
#243 = AXIS2_PLACEMENT_3D ( 'NONE', #20, #161, #261 ) ;
#244 = EDGE_LOOP ( 'NONE', ( #33, #79, #218, #272 ) ) ;
#245 = CC_DESIGN_PERSON_AND_ORGANIZATION_ASSIGNMENT ( #143, #5, ( #207 ) ) ;
#246 = EDGE_LOOP ( 'NONE', ( #248, #197 ) ) ;
#247 = CIRCLE ( 'NONE', #128, 6.000000000000000888 ) ;
#248 = ORIENTED_EDGE ( 'NONE', *, *, #93, .T. ) ;
#249 = EDGE_LOOP ( 'NONE', ( #296, #147, #68, #61 ) ) ;
#250 = CARTESIAN_POINT ( 'NONE',  ( 0.000000000000000000, 0.000000000000000000, 0.000000000000000000 ) ) ;
#251 = EDGE_CURVE ( 'NONE', #127, #14, #131, .T. ) ;
#252 = FACE_OUTER_BOUND ( 'NONE', #189, .T. ) ;
#253 = CARTESIAN_POINT ( 'NONE',  ( 0.000000000000000000, 0.000000000000000000, 805.0000000000000000 ) ) ;
#254 = VERTEX_POINT ( 'NONE', #287 ) ;
#255 = CYLINDRICAL_SURFACE ( 'NONE', #27, 6.000000000000000888 ) ;
#256 =( NAMED_UNIT ( * ) SI_UNIT ( $, .STERADIAN. ) SOLID_ANGLE_UNIT ( ) );
#257 = VECTOR ( 'NONE', #48, 1000.000000000000000 ) ;
#258 = APPROVAL_PERSON_ORGANIZATION ( #80, #158, #174 ) ;
#259 = FACE_OUTER_BOUND ( 'NONE', #175, .T. ) ;
#260 = EDGE_CURVE ( 'NONE', #75, #192, #113, .T. ) ;
#261 = DIRECTION ( 'NONE',  ( 1.000000000000000000, 0.000000000000000000, 0.000000000000000000 ) ) ;
#262 = AXIS2_PLACEMENT_3D ( 'NONE', #105, #199, #182 ) ;
#263 = CARTESIAN_POINT ( 'NONE',  ( -6.000000000000000888, 0.000000000000000000, 0.000000000000000000 ) ) ;
#264 = APPROVAL ( #10, 'NEURÈENÝ' ) ;
#265 = APPROVAL_STATUS ( 'not_yet_approved' ) ;
#266 = VECTOR ( 'NONE', #278, 1000.000000000000000 ) ;
#267 = EDGE_LOOP ( 'NONE', ( #63, #173 ) ) ;
#268 = COORDINATED_UNIVERSAL_TIME_OFFSET ( 1, 0, .AHEAD. ) ;
#269 = AXIS2_PLACEMENT_3D ( 'NONE', #183, #237, #50 ) ;
#270 = LOCAL_TIME ( 12, 8, 23.00000000000000000, #217 ) ;
#271 = DATE_AND_TIME ( #32, #153 ) ;
#272 = ORIENTED_EDGE ( 'NONE', *, *, #286, .T. ) ;
#273 = PRODUCT_DEFINITION_SHAPE ( 'NONE', 'NONE',  #134 ) ;
#274 = ORIENTED_EDGE ( 'NONE', *, *, #233, .F. ) ;
#275 = COORDINATED_UNIVERSAL_TIME_OFFSET ( 1, 0, .AHEAD. ) ;
#276 = ORIENTED_EDGE ( 'NONE', *, *, #286, .F. ) ;
#277 = CIRCLE ( 'NONE', #243, 6.000000000000000888 ) ;
#278 = DIRECTION ( 'NONE',  ( -0.000000000000000000, -0.000000000000000000, -1.000000000000000000 ) ) ;
#279 = FACE_OUTER_BOUND ( 'NONE', #246, .T. ) ;
#280 = CIRCLE ( 'NONE', #288, 6.000000000000000888 ) ;
#281 = ORIENTED_EDGE ( 'NONE', *, *, #179, .T. ) ;
#282 = CC_DESIGN_DATE_AND_TIME_ASSIGNMENT ( #60, #167, ( #207 ) ) ;
#283 = CARTESIAN_POINT ( 'NONE',  ( 0.000000000000000000, 0.000000000000000000, 5.000000000000000000 ) ) ;
#284 = DIRECTION ( 'NONE',  ( 0.000000000000000000, 0.000000000000000000, 1.000000000000000000 ) ) ;
#285 = FACE_OUTER_BOUND ( 'NONE', #244, .T. ) ;
#286 = EDGE_CURVE ( 'NONE', #14, #127, #26, .T. ) ;
#287 = CARTESIAN_POINT ( 'NONE',  ( 3.250000000000000444, 3.980102097228898231E-16, 805.0000000000000000 ) ) ;
#288 = AXIS2_PLACEMENT_3D ( 'NONE', #130, #152, #149 ) ;
#289 = DIRECTION ( 'NONE',  ( 0.000000000000000000, 0.000000000000000000, 1.000000000000000000 ) ) ;
#290 = ORIENTED_EDGE ( 'NONE', *, *, #223, .T. ) ;
#291 = APPROVAL_DATE_TIME ( #172, #25 ) ;
#292 = EDGE_CURVE ( 'NONE', #194, #220, #277, .T. ) ;
#293 = CALENDAR_DATE ( 2022, 7, 7 ) ;
#294 = ORIENTED_EDGE ( 'NONE', *, *, #233, .T. ) ;
#295 = CALENDAR_DATE ( 2022, 7, 7 ) ;
#296 = ORIENTED_EDGE ( 'NONE', *, *, #11, .F. ) ;
#297 = EDGE_CURVE ( 'NONE', #35, #194, #163, .T. ) ;
#298 = DIRECTION ( 'NONE',  ( 0.000000000000000000, 0.000000000000000000, 1.000000000000000000 ) ) ;
#299 = CC_DESIGN_APPROVAL ( #158, ( #207 ) ) ;
#300 = LINE ( 'NONE', #306, #266 ) ;
#301 = DIRECTION ( 'NONE',  ( 1.000000000000000000, 0.000000000000000000, -0.000000000000000000 ) ) ;
#302 = CIRCLE ( 'NONE', #40, 6.000000000000000888 ) ;
#303 = CC_DESIGN_PERSON_AND_ORGANIZATION_ASSIGNMENT ( #101, #198, ( #134 ) ) ;
#304 = DIRECTION ( 'NONE',  ( 1.000000000000000000, 0.000000000000000000, 0.000000000000000000 ) ) ;
#305 = CIRCLE ( 'NONE', #118, 0.1999999999999996503 ) ;
#306 = CARTESIAN_POINT ( 'NONE',  ( -6.000000000000000888, 0.000000000000000000, 5.000000000000000000 ) ) ;
#307 = DIRECTION ( 'NONE',  ( -0.000000000000000000, -0.000000000000000000, -1.000000000000000000 ) ) ;
ENDSEC;
END-ISO-10303-21;
