ISO-10303-21;
HEADER;
FILE_DESCRIPTION (( 'STEP AP203' ),
    '1' );
FILE_NAME ('33e8.STEP',
    '2022-07-07T10:04:38',
    ( '' ),
    ( '' ),
    'SwSTEP 2.0',
    'SolidWorks 2019',
    '' );
FILE_SCHEMA (( 'CONFIG_CONTROL_DESIGN' ));
ENDSEC;

DATA;
#1 = CYLINDRICAL_SURFACE ( 'NONE', #119, 6.000000000000000888 ) ;
#2 = CARTESIAN_POINT ( 'NONE',  ( -6.000000000000000888, 0.000000000000000000, 5.000000000000000000 ) ) ;
#3 = EDGE_CURVE ( 'NONE', #56, #305, #251, .T. ) ;
#4 = CARTESIAN_POINT ( 'NONE',  ( 0.000000000000000000, 0.000000000000000000, 5.199999999999982414 ) ) ;
#5 = DIRECTION ( 'NONE',  ( -0.000000000000000000, -0.000000000000000000, -1.000000000000000000 ) ) ;
#6 = DIRECTION ( 'NONE',  ( 1.000000000000000000, 0.000000000000000000, 0.000000000000000000 ) ) ;
#7 =( NAMED_UNIT ( * ) SI_UNIT ( $, .STERADIAN. ) SOLID_ANGLE_UNIT ( ) );
#8 = CC_DESIGN_PERSON_AND_ORGANIZATION_ASSIGNMENT ( #205, #11, ( #283 ) ) ;
#9 = VECTOR ( 'NONE', #47, 1000.000000000000000 ) ;
#10 = APPROVAL_STATUS ( 'not_yet_approved' ) ;
#11 = PERSON_AND_ORGANIZATION_ROLE ( 'creator' ) ;
#12 = APPROVAL ( #210, 'NEURÈENÝ' ) ;
#13 = EDGE_LOOP ( 'NONE', ( #93, #200, #129, #286 ) ) ;
#14 = APPLICATION_PROTOCOL_DEFINITION ( 'international standard', 'config_control_design', 1994, #149 ) ;
#15 = LOCAL_TIME ( 12, 4, 38.00000000000000000, #224 ) ;
#16 = ORIENTED_EDGE ( 'NONE', *, *, #121, .T. ) ;
#17 = APPLICATION_CONTEXT ( 'configuration controlled 3d designs of mechanical parts and assemblies' ) ;
#18 = AXIS2_PLACEMENT_3D ( 'NONE', #48, #146, #213 ) ;
#19 = PERSON ( 'NEURÈENÝ', 'NEURÈENÝ', 'NEURÈENÝ', ('NEURÈENÝ'), ('NEURÈENÝ'), ('NEURÈENÝ') ) ;
#20 = LOCAL_TIME ( 12, 4, 38.00000000000000000, #276 ) ;
#21 = DIRECTION ( 'NONE',  ( 0.000000000000000000, 0.000000000000000000, 1.000000000000000000 ) ) ;
#22 = CARTESIAN_POINT ( 'NONE',  ( -3.949999999999999734, 4.837354856632044071E-16, 4.999999999999991118 ) ) ;
#23 = APPROVAL ( #10, 'NEURÈENÝ' ) ;
#24 = FACE_OUTER_BOUND ( 'NONE', #277, .T. ) ;
#25 = CIRCLE ( 'NONE', #116, 3.750000000000000000 ) ;
#26 = FACE_OUTER_BOUND ( 'NONE', #13, .T. ) ;
#27 = VERTEX_POINT ( 'NONE', #171 ) ;
#28 = ADVANCED_FACE ( 'NONE', ( #52 ), #80, .T. ) ;
#29 = DIRECTION ( 'NONE',  ( 1.000000000000000000, 0.000000000000000000, 0.000000000000000000 ) ) ;
#30 = DIRECTION ( 'NONE',  ( 1.000000000000000000, 0.000000000000000000, 0.000000000000000000 ) ) ;
#31 = CARTESIAN_POINT ( 'NONE',  ( 6.000000000000000888, 7.347880794884120722E-16, 5.000000000000000000 ) ) ;
#32 = CYLINDRICAL_SURFACE ( 'NONE', #72, 6.000000000000000888 ) ;
#33 = DIRECTION ( 'NONE',  ( 1.000000000000000000, 0.000000000000000000, 0.000000000000000000 ) ) ;
#34 = DATE_AND_TIME ( #250, #275 ) ;
#35 = EDGE_CURVE ( 'NONE', #229, #188, #293, .T. ) ;
#36 = APPROVAL_STATUS ( 'not_yet_approved' ) ;
#37 = MANIFOLD_SOLID_BREP ( 'Zaoblit1', #90 ) ;
#38 = DATE_TIME_ROLE ( 'creation_date' ) ;
#39 = EDGE_CURVE ( 'NONE', #44, #188, #191, .T. ) ;
#40 = PERSON_AND_ORGANIZATION ( #19, #204 ) ;
#41 = AXIS2_PLACEMENT_3D ( 'NONE', #4, #152, #216 ) ;
#42 = ORIENTED_EDGE ( 'NONE', *, *, #185, .F. ) ;
#43 = CC_DESIGN_SECURITY_CLASSIFICATION ( #304, ( #283 ) ) ;
#44 = VERTEX_POINT ( 'NONE', #22 ) ;
#45 = CARTESIAN_POINT ( 'NONE',  ( 6.000000000000000888, 7.347880794884120722E-16, 0.000000000000000000 ) ) ;
#46 = ORIENTED_EDGE ( 'NONE', *, *, #256, .F. ) ;
#47 = DIRECTION ( 'NONE',  ( -0.000000000000000000, -0.000000000000000000, -1.000000000000000000 ) ) ;
#48 = CARTESIAN_POINT ( 'NONE',  ( 0.000000000000000000, 0.000000000000000000, 5.199999999999982414 ) ) ;
#49 = ADVANCED_FACE ( 'NONE', ( #24 ), #262, .F. ) ;
#50 = DIRECTION ( 'NONE',  ( -1.000000000000000000, 0.000000000000000000, 0.000000000000000000 ) ) ;
#51 = ORIENTED_EDGE ( 'NONE', *, *, #118, .T. ) ;
#52 = FACE_OUTER_BOUND ( 'NONE', #81, .T. ) ;
#53 = AXIS2_PLACEMENT_3D ( 'NONE', #201, #155, #287 ) ;
#54 = DIRECTION ( 'NONE',  ( 0.000000000000000000, 0.000000000000000000, 1.000000000000000000 ) ) ;
#55 = PRODUCT_DEFINITION ( 'NEZNÁMÝ', '', #283, #206 ) ;
#56 = VERTEX_POINT ( 'NONE', #125 ) ;
#57 = CARTESIAN_POINT ( 'NONE',  ( 0.000000000000000000, 0.000000000000000000, 0.000000000000000000 ) ) ;
#58 = DIRECTION ( 'NONE',  ( -1.000000000000000000, 0.000000000000000000, 0.000000000000000000 ) ) ;
#59 = TOROIDAL_SURFACE ( 'NONE', #41, 3.949999999999999734, 0.2000000000000000111 ) ;
#60 = DIRECTION ( 'NONE',  ( 1.000000000000000000, 0.000000000000000000, 0.000000000000000000 ) ) ;
#61 = AXIS2_PLACEMENT_3D ( 'NONE', #156, #189, #60 ) ;
#62 = DATE_AND_TIME ( #270, #172 ) ;
#63 = ADVANCED_FACE ( 'NONE', ( #26 ), #59, .F. ) ;
#64 = APPLICATION_PROTOCOL_DEFINITION ( 'international standard', 'config_control_design', 1994, #17 ) ;
#65 = APPROVAL_ROLE ( '' ) ;
#66 = AXIS2_PLACEMENT_3D ( 'NONE', #265, #100, #193 ) ;
#67 = ADVANCED_FACE ( 'NONE', ( #238 ), #1, .T. ) ;
#68 = AXIS2_PLACEMENT_3D ( 'NONE', #243, #5, #33 ) ;
#69 = COORDINATED_UNIVERSAL_TIME_OFFSET ( 1, 0, .AHEAD. ) ;
#70 = PERSON_AND_ORGANIZATION_ROLE ( 'creator' ) ;
#71 = ORIENTED_EDGE ( 'NONE', *, *, #113, .F. ) ;
#72 = AXIS2_PLACEMENT_3D ( 'NONE', #136, #267, #58 ) ;
#73 = ORIENTED_EDGE ( 'NONE', *, *, #134, .T. ) ;
#74 = CARTESIAN_POINT ( 'NONE',  ( 3.949999999999999734, 0.000000000000000000, 4.999999999999991118 ) ) ;
#75 = EDGE_LOOP ( 'NONE', ( #16, #233 ) ) ;
#76 = APPROVAL ( #36, 'NEURÈENÝ' ) ;
#77 = APPROVAL_PERSON_ORGANIZATION ( #91, #12, #177 ) ;
#78 = DIRECTION ( 'NONE',  ( 1.000000000000000000, 0.000000000000000000, 0.000000000000000000 ) ) ;
#79 = ORIENTED_EDGE ( 'NONE', *, *, #39, .T. ) ;
#80 = CYLINDRICAL_SURFACE ( 'NONE', #132, 3.750000000000000000 ) ;
#81 = EDGE_LOOP ( 'NONE', ( #71, #51, #92, #46 ) ) ;
#82 = FACE_OUTER_BOUND ( 'NONE', #285, .T. ) ;
#83 = DIRECTION ( 'NONE',  ( 1.000000000000000000, 0.000000000000000000, -0.000000000000000000 ) ) ;
#84 = DIRECTION ( 'NONE',  ( 1.000000000000000000, 0.000000000000000000, 0.000000000000000000 ) ) ;
#85 = LINE ( 'NONE', #147, #9 ) ;
#86 = ADVANCED_FACE ( 'NONE', ( #82 ), #124, .F. ) ;
#87 = FACE_OUTER_BOUND ( 'NONE', #190, .T. ) ;
#88 = DIRECTION ( 'NONE',  ( 1.000000000000000000, 0.000000000000000000, 0.000000000000000000 ) ) ;
#89 = PRODUCT ( '33e8', '33e8', '', ( #228 ) ) ;
#90 = CLOSED_SHELL ( 'NONE', ( #63, #28, #108, #67, #244, #49, #182, #278, #86 ) ) ;
#91 = PERSON_AND_ORGANIZATION ( #19, #204 ) ;
#92 = ORIENTED_EDGE ( 'NONE', *, *, #97, .T. ) ;
#93 = ORIENTED_EDGE ( 'NONE', *, *, #306, .F. ) ;
#94 = CC_DESIGN_DATE_AND_TIME_ASSIGNMENT ( #223, #38, ( #55 ) ) ;
#95 = VECTOR ( 'NONE', #240, 1000.000000000000000 ) ;
#96 =( NAMED_UNIT ( * ) PLANE_ANGLE_UNIT ( ) SI_UNIT ( $, .RADIAN. ) );
#97 = EDGE_CURVE ( 'NONE', #229, #115, #222, .T. ) ;
#98 = CARTESIAN_POINT ( 'NONE',  ( 0.000000000000000000, 0.000000000000000000, 505.0000000000000000 ) ) ;
#99 = AXIS2_PLACEMENT_3D ( 'NONE', #217, #175, #30 ) ;
#100 = DIRECTION ( 'NONE',  ( 0.000000000000000000, 0.000000000000000000, 1.000000000000000000 ) ) ;
#101 = ORIENTED_EDGE ( 'NONE', *, *, #173, .F. ) ;
#102 = DIRECTION ( 'NONE',  ( 0.000000000000000000, 0.000000000000000000, -1.000000000000000000 ) ) ;
#103 = DIRECTION ( 'NONE',  ( -0.000000000000000000, -0.000000000000000000, -1.000000000000000000 ) ) ;
#104 = PLANE ( 'NONE',  #53 ) ;
#105 = LOCAL_TIME ( 12, 4, 38.00000000000000000, #161 ) ;
#106 = EDGE_LOOP ( 'NONE', ( #42, #153, #123, #148 ) ) ;
#107 = CARTESIAN_POINT ( 'NONE',  ( -6.000000000000000888, 0.000000000000000000, 5.000000000000000000 ) ) ;
#108 = ADVANCED_FACE ( 'NONE', ( #241 ), #32, .T. ) ;
#109 = DIRECTION ( 'NONE',  ( -0.000000000000000000, -0.000000000000000000, -1.000000000000000000 ) ) ;
#110 = CIRCLE ( 'NONE', #61, 3.750000000000000000 ) ;
#111 = CIRCLE ( 'NONE', #140, 6.000000000000000888 ) ;
#112 = APPROVAL_DATE_TIME ( #226, #23 ) ;
#113 = EDGE_CURVE ( 'NONE', #27, #253, #110, .T. ) ;
#114 = SECURITY_CLASSIFICATION_LEVEL ( 'unclassified' ) ;
#115 = VERTEX_POINT ( 'NONE', #174 ) ;
#116 = AXIS2_PLACEMENT_3D ( 'NONE', #98, #130, #78 ) ;
#117 = DATE_TIME_ROLE ( 'classification_date' ) ;
#118 = EDGE_CURVE ( 'NONE', #27, #229, #122, .T. ) ;
#119 = AXIS2_PLACEMENT_3D ( 'NONE', #196, #103, #197 ) ;
#120 = ORIENTED_EDGE ( 'NONE', *, *, #134, .F. ) ;
#121 = EDGE_CURVE ( 'NONE', #239, #258, #111, .T. ) ;
#122 = LINE ( 'NONE', #279, #215 ) ;
#123 = ORIENTED_EDGE ( 'NONE', *, *, #299, .T. ) ;
#124 = TOROIDAL_SURFACE ( 'NONE', #18, 3.949999999999999734, 0.2000000000000000111 ) ;
#125 = CARTESIAN_POINT ( 'NONE',  ( -6.000000000000000888, 0.000000000000000000, 0.000000000000000000 ) ) ;
#126 = CIRCLE ( 'NONE', #151, 6.000000000000000888 ) ;
#127 = EDGE_LOOP ( 'NONE', ( #168, #79 ) ) ;
#128 = EDGE_CURVE ( 'NONE', #115, #44, #187, .T. ) ;
#129 = ORIENTED_EDGE ( 'NONE', *, *, #143, .F. ) ;
#130 = DIRECTION ( 'NONE',  ( 0.000000000000000000, 0.000000000000000000, 1.000000000000000000 ) ) ;
#131 = DIRECTION ( 'NONE',  ( -1.000000000000000000, 0.000000000000000000, 0.000000000000000000 ) ) ;
#132 = AXIS2_PLACEMENT_3D ( 'NONE', #235, #170, #131 ) ;
#133 = DIRECTION ( 'NONE',  ( -0.000000000000000000, -0.000000000000000000, -1.000000000000000000 ) ) ;
#134 = EDGE_CURVE ( 'NONE', #305, #56, #231, .T. ) ;
#135 = AXIS2_PLACEMENT_3D ( 'NONE', #234, #167, #83 ) ;
#136 = CARTESIAN_POINT ( 'NONE',  ( 0.000000000000000000, 0.000000000000000000, 5.000000000000000000 ) ) ;
#137 = DIRECTION ( 'NONE',  ( 1.000000000000000000, 0.000000000000000000, 0.000000000000000000 ) ) ;
#138 = SHAPE_DEFINITION_REPRESENTATION ( #248, #272 ) ;
#139 = DATE_AND_TIME ( #142, #105 ) ;
#140 = AXIS2_PLACEMENT_3D ( 'NONE', #266, #176, #260 ) ;
#141 = ORIENTED_EDGE ( 'NONE', *, *, #185, .T. ) ;
#142 = CALENDAR_DATE ( 2022, 7, 7 ) ;
#143 = EDGE_CURVE ( 'NONE', #188, #44, #237, .T. ) ;
#144 = CC_DESIGN_APPROVAL ( #76, ( #55 ) ) ;
#145 = FACE_BOUND ( 'NONE', #127, .T. ) ;
#146 = DIRECTION ( 'NONE',  ( 0.000000000000000000, 0.000000000000000000, 1.000000000000000000 ) ) ;
#147 = CARTESIAN_POINT ( 'NONE',  ( 6.000000000000000888, 7.347880794884120722E-16, 5.000000000000000000 ) ) ;
#148 = ORIENTED_EDGE ( 'NONE', *, *, #3, .T. ) ;
#149 = APPLICATION_CONTEXT ( 'configuration controlled 3d designs of mechanical parts and assemblies' ) ;
#150 = DIRECTION ( 'NONE',  ( 1.000000000000000000, 0.000000000000000000, -0.000000000000000000 ) ) ;
#151 = AXIS2_PLACEMENT_3D ( 'NONE', #218, #198, #137 ) ;
#152 = DIRECTION ( 'NONE',  ( 0.000000000000000000, 0.000000000000000000, 1.000000000000000000 ) ) ;
#153 = ORIENTED_EDGE ( 'NONE', *, *, #121, .F. ) ;
#154 = EDGE_CURVE ( 'NONE', #258, #239, #126, .T. ) ;
#155 = DIRECTION ( 'NONE',  ( 0.000000000000000000, 0.000000000000000000, 1.000000000000000000 ) ) ;
#156 = CARTESIAN_POINT ( 'NONE',  ( 0.000000000000000000, 0.000000000000000000, 505.0000000000000000 ) ) ;
#157 = CARTESIAN_POINT ( 'NONE',  ( -3.949999999999999734, 4.837354856632044071E-16, 5.199999999999982414 ) ) ;
#158 = APPROVAL_DATE_TIME ( #62, #12 ) ;
#159 = PERSON_AND_ORGANIZATION_ROLE ( 'design_owner' ) ;
#160 = AXIS2_PLACEMENT_3D ( 'NONE', #303, #307, #84 ) ;
#161 = COORDINATED_UNIVERSAL_TIME_OFFSET ( 1, 0, .AHEAD. ) ;
#162 = PERSON_AND_ORGANIZATION ( #19, #204 ) ;
#163 = AXIS2_PLACEMENT_3D ( 'NONE', #157, #268, #220 ) ;
#164 = ORIENTED_EDGE ( 'NONE', *, *, #256, .T. ) ;
#165 = CARTESIAN_POINT ( 'NONE',  ( 3.750000000000000000, 4.592425496802573972E-16, 5.199999999999982414 ) ) ;
#166 = CC_DESIGN_APPROVAL ( #23, ( #283 ) ) ;
#167 = DIRECTION ( 'NONE',  ( 0.000000000000000000, 0.000000000000000000, 1.000000000000000000 ) ) ;
#168 = ORIENTED_EDGE ( 'NONE', *, *, #143, .T. ) ;
#169 = CC_DESIGN_DATE_AND_TIME_ASSIGNMENT ( #34, #117, ( #304 ) ) ;
#170 = DIRECTION ( 'NONE',  ( -0.000000000000000000, -0.000000000000000000, -1.000000000000000000 ) ) ;
#171 = CARTESIAN_POINT ( 'NONE',  ( 3.750000000000000000, 4.592425496802573972E-16, 505.0000000000000000 ) ) ;
#172 = LOCAL_TIME ( 12, 4, 38.00000000000000000, #69 ) ;
#173 = EDGE_CURVE ( 'NONE', #253, #27, #25, .T. ) ;
#174 = CARTESIAN_POINT ( 'NONE',  ( -3.750000000000000000, 0.000000000000000000, 5.199999999999982414 ) ) ;
#175 = DIRECTION ( 'NONE',  ( -0.000000000000000000, -0.000000000000000000, -1.000000000000000000 ) ) ;
#176 = DIRECTION ( 'NONE',  ( 0.000000000000000000, 0.000000000000000000, 1.000000000000000000 ) ) ;
#177 = APPROVAL_ROLE ( '' ) ;
#178 = AXIS2_PLACEMENT_3D ( 'NONE', #271, #203, #88 ) ;
#179 = UNCERTAINTY_MEASURE_WITH_UNIT (LENGTH_MEASURE( 1.000000000000000082E-05 ), #230, 'distance_accuracy_value', 'NONE');
#180 = PERSON_AND_ORGANIZATION_ROLE ( 'design_supplier' ) ;
#181 = PERSON_AND_ORGANIZATION ( #19, #204 ) ;
#182 = ADVANCED_FACE ( 'NONE', ( #290 ), #192, .T. ) ;
#183 = EDGE_LOOP ( 'NONE', ( #296, #101, #164, #280 ) ) ;
#184 = AXIS2_PLACEMENT_3D ( 'NONE', #288, #54, #150 ) ;
#185 = EDGE_CURVE ( 'NONE', #258, #305, #85, .T. ) ;
#186 = ORIENTED_EDGE ( 'NONE', *, *, #173, .T. ) ;
#187 = CIRCLE ( 'NONE', #163, 0.1999999999999996503 ) ;
#188 = VERTEX_POINT ( 'NONE', #74 ) ;
#189 = DIRECTION ( 'NONE',  ( 0.000000000000000000, 0.000000000000000000, 1.000000000000000000 ) ) ;
#190 = EDGE_LOOP ( 'NONE', ( #186, #298 ) ) ;
#191 = CIRCLE ( 'NONE', #99, 3.949999999999999734 ) ;
#192 = CYLINDRICAL_SURFACE ( 'NONE', #199, 3.750000000000000000 ) ;
#193 = DIRECTION ( 'NONE',  ( 1.000000000000000000, 0.000000000000000000, 0.000000000000000000 ) ) ;
#194 = AXIS2_PLACEMENT_3D ( 'NONE', #57, #302, #6 ) ;
#195 = ORIENTED_EDGE ( 'NONE', *, *, #299, .F. ) ;
#196 = CARTESIAN_POINT ( 'NONE',  ( 0.000000000000000000, 0.000000000000000000, 5.000000000000000000 ) ) ;
#197 = DIRECTION ( 'NONE',  ( -1.000000000000000000, 0.000000000000000000, 0.000000000000000000 ) ) ;
#198 = DIRECTION ( 'NONE',  ( 0.000000000000000000, 0.000000000000000000, 1.000000000000000000 ) ) ;
#199 = AXIS2_PLACEMENT_3D ( 'NONE', #221, #109, #50 ) ;
#200 = ORIENTED_EDGE ( 'NONE', *, *, #128, .T. ) ;
#201 = CARTESIAN_POINT ( 'NONE',  ( 0.000000000000000000, 0.000000000000000000, 5.000000000000000000 ) ) ;
#202 = CC_DESIGN_PERSON_AND_ORGANIZATION_ASSIGNMENT ( #181, #159, ( #89 ) ) ;
#203 = DIRECTION ( 'NONE',  ( 0.000000000000000000, 0.000000000000000000, 1.000000000000000000 ) ) ;
#204 = ORGANIZATION ( 'NEURÈENÝ', 'NEURÈENÝ', '' ) ;
#205 = PERSON_AND_ORGANIZATION ( #19, #204 ) ;
#206 = DESIGN_CONTEXT ( 'detailed design', #149, 'design' ) ;
#207 = PERSON_AND_ORGANIZATION_ROLE ( 'classification_officer' ) ;
#208 = CC_DESIGN_PERSON_AND_ORGANIZATION_ASSIGNMENT ( #273, #207, ( #304 ) ) ;
#209 = ORIENTED_EDGE ( 'NONE', *, *, #3, .F. ) ;
#210 = APPROVAL_STATUS ( 'not_yet_approved' ) ;
#211 = LINE ( 'NONE', #107, #259 ) ;
#212 = CARTESIAN_POINT ( 'NONE',  ( -3.750000000000000000, 0.000000000000000000, 505.0000000000000000 ) ) ;
#213 = DIRECTION ( 'NONE',  ( 1.000000000000000000, 0.000000000000000000, 0.000000000000000000 ) ) ;
#214 = ORIENTED_EDGE ( 'NONE', *, *, #39, .F. ) ;
#215 = VECTOR ( 'NONE', #133, 1000.000000000000000 ) ;
#216 = DIRECTION ( 'NONE',  ( 1.000000000000000000, 0.000000000000000000, 0.000000000000000000 ) ) ;
#217 = CARTESIAN_POINT ( 'NONE',  ( 0.000000000000000000, 0.000000000000000000, 5.000000000000000000 ) ) ;
#218 = CARTESIAN_POINT ( 'NONE',  ( 0.000000000000000000, 0.000000000000000000, 5.000000000000000000 ) ) ;
#219 = CARTESIAN_POINT ( 'NONE',  ( 3.949999999999999734, 0.000000000000000000, 5.199999999999982414 ) ) ;
#220 = DIRECTION ( 'NONE',  ( -1.000000000000000000, 1.224646799147353454E-16, 0.000000000000000000 ) ) ;
#221 = CARTESIAN_POINT ( 'NONE',  ( 0.000000000000000000, 0.000000000000000000, 505.0000000000000000 ) ) ;
#222 = CIRCLE ( 'NONE', #66, 3.750000000000000000 ) ;
#223 = DATE_AND_TIME ( #294, #20 ) ;
#224 = COORDINATED_UNIVERSAL_TIME_OFFSET ( 1, 0, .AHEAD. ) ;
#225 = CC_DESIGN_PERSON_AND_ORGANIZATION_ASSIGNMENT ( #40, #70, ( #55 ) ) ;
#226 = DATE_AND_TIME ( #249, #15 ) ;
#227 = ORIENTED_EDGE ( 'NONE', *, *, #154, .F. ) ;
#228 = MECHANICAL_CONTEXT ( 'NONE', #17, 'mechanical' ) ;
#229 = VERTEX_POINT ( 'NONE', #165 ) ;
#230 =( LENGTH_UNIT ( ) NAMED_UNIT ( * ) SI_UNIT ( .MILLI., .METRE. ) );
#231 = CIRCLE ( 'NONE', #194, 6.000000000000000888 ) ;
#232 = PLANE ( 'NONE',  #135 ) ;
#233 = ORIENTED_EDGE ( 'NONE', *, *, #154, .T. ) ;
#234 = CARTESIAN_POINT ( 'NONE',  ( 0.000000000000000000, 0.000000000000000000, 505.0000000000000000 ) ) ;
#235 = CARTESIAN_POINT ( 'NONE',  ( 0.000000000000000000, 0.000000000000000000, 505.0000000000000000 ) ) ;
#236 = ORIENTED_EDGE ( 'NONE', *, *, #128, .F. ) ;
#237 = CIRCLE ( 'NONE', #68, 3.949999999999999734 ) ;
#238 = FACE_OUTER_BOUND ( 'NONE', #106, .T. ) ;
#239 = VERTEX_POINT ( 'NONE', #2 ) ;
#240 = DIRECTION ( 'NONE',  ( -0.000000000000000000, -0.000000000000000000, -1.000000000000000000 ) ) ;
#241 = FACE_OUTER_BOUND ( 'NONE', #261, .T. ) ;
#242 = AXIS2_PLACEMENT_3D ( 'NONE', #301, #21, #29 ) ;
#243 = CARTESIAN_POINT ( 'NONE',  ( 0.000000000000000000, 0.000000000000000000, 5.000000000000000000 ) ) ;
#244 = ADVANCED_FACE ( 'NONE', ( #145, #282 ), #104, .T. ) ;
#245 = APPROVAL_ROLE ( '' ) ;
#246 = APPROVAL_DATE_TIME ( #139, #76 ) ;
#247 = CC_DESIGN_APPROVAL ( #12, ( #304 ) ) ;
#248 = PRODUCT_DEFINITION_SHAPE ( 'NONE', 'NONE',  #55 ) ;
#249 = CALENDAR_DATE ( 2022, 7, 7 ) ;
#250 = CALENDAR_DATE ( 2022, 7, 7 ) ;
#251 = CIRCLE ( 'NONE', #160, 6.000000000000000888 ) ;
#252 = CC_DESIGN_PERSON_AND_ORGANIZATION_ASSIGNMENT ( #297, #180, ( #283 ) ) ;
#253 = VERTEX_POINT ( 'NONE', #212 ) ;
#254 = DIRECTION ( 'NONE',  ( -0.000000000000000000, -0.000000000000000000, -1.000000000000000000 ) ) ;
#255 = ORIENTED_EDGE ( 'NONE', *, *, #97, .F. ) ;
#256 = EDGE_CURVE ( 'NONE', #253, #115, #257, .T. ) ;
#257 = LINE ( 'NONE', #291, #95 ) ;
#258 = VERTEX_POINT ( 'NONE', #31 ) ;
#259 = VECTOR ( 'NONE', #254, 1000.000000000000000 ) ;
#260 = DIRECTION ( 'NONE',  ( 1.000000000000000000, 0.000000000000000000, 0.000000000000000000 ) ) ;
#261 = EDGE_LOOP ( 'NONE', ( #227, #141, #73, #195 ) ) ;
#262 = PLANE ( 'NONE',  #184 ) ;
#263 = DIRECTION ( 'NONE',  ( 0.000000000000000000, -1.000000000000000000, 0.000000000000000000 ) ) ;
#264 = APPROVAL_PERSON_ORGANIZATION ( #292, #76, #65 ) ;
#265 = CARTESIAN_POINT ( 'NONE',  ( 0.000000000000000000, 0.000000000000000000, 5.199999999999982414 ) ) ;
#266 = CARTESIAN_POINT ( 'NONE',  ( 0.000000000000000000, 0.000000000000000000, 5.000000000000000000 ) ) ;
#267 = DIRECTION ( 'NONE',  ( -0.000000000000000000, -0.000000000000000000, -1.000000000000000000 ) ) ;
#268 = DIRECTION ( 'NONE',  ( 1.224646799147353207E-16, 1.000000000000000000, -0.000000000000000000 ) ) ;
#269 =( GEOMETRIC_REPRESENTATION_CONTEXT ( 3 ) GLOBAL_UNCERTAINTY_ASSIGNED_CONTEXT ( ( #179 ) ) GLOBAL_UNIT_ASSIGNED_CONTEXT ( ( #230, #96, #7 ) ) REPRESENTATION_CONTEXT ( 'NONE', 'WORKASPACE' ) );
#270 = CALENDAR_DATE ( 2022, 7, 7 ) ;
#271 = CARTESIAN_POINT ( 'NONE',  ( 0.000000000000000000, 0.000000000000000000, 0.000000000000000000 ) ) ;
#272 = ADVANCED_BREP_SHAPE_REPRESENTATION ( '33e8', ( #37, #178 ), #269 ) ;
#273 = PERSON_AND_ORGANIZATION ( #19, #204 ) ;
#274 = COORDINATED_UNIVERSAL_TIME_OFFSET ( 1, 0, .AHEAD. ) ;
#275 = LOCAL_TIME ( 12, 4, 38.00000000000000000, #274 ) ;
#276 = COORDINATED_UNIVERSAL_TIME_OFFSET ( 1, 0, .AHEAD. ) ;
#277 = EDGE_LOOP ( 'NONE', ( #209, #120 ) ) ;
#278 = ADVANCED_FACE ( 'NONE', ( #87 ), #232, .T. ) ;
#279 = CARTESIAN_POINT ( 'NONE',  ( 3.750000000000000000, 4.592425496802573972E-16, 505.0000000000000000 ) ) ;
#280 = ORIENTED_EDGE ( 'NONE', *, *, #306, .T. ) ;
#281 = AXIS2_PLACEMENT_3D ( 'NONE', #219, #263, #102 ) ;
#282 = FACE_OUTER_BOUND ( 'NONE', #75, .T. ) ;
#283 = PRODUCT_DEFINITION_FORMATION_WITH_SPECIFIED_SOURCE ( 'LIBOVOLNÝ', '', #89, .NOT_KNOWN. ) ;
#284 = ORIENTED_EDGE ( 'NONE', *, *, #35, .T. ) ;
#285 = EDGE_LOOP ( 'NONE', ( #236, #255, #284, #214 ) ) ;
#286 = ORIENTED_EDGE ( 'NONE', *, *, #35, .F. ) ;
#287 = DIRECTION ( 'NONE',  ( 1.000000000000000000, 0.000000000000000000, -0.000000000000000000 ) ) ;
#288 = CARTESIAN_POINT ( 'NONE',  ( 0.000000000000000000, 0.000000000000000000, 0.000000000000000000 ) ) ;
#289 = PRODUCT_RELATED_PRODUCT_CATEGORY ( 'detail', '', ( #89 ) ) ;
#290 = FACE_OUTER_BOUND ( 'NONE', #183, .T. ) ;
#291 = CARTESIAN_POINT ( 'NONE',  ( -3.750000000000000000, 0.000000000000000000, 505.0000000000000000 ) ) ;
#292 = PERSON_AND_ORGANIZATION ( #19, #204 ) ;
#293 = CIRCLE ( 'NONE', #281, 0.1999999999999996503 ) ;
#294 = CALENDAR_DATE ( 2022, 7, 7 ) ;
#295 = CIRCLE ( 'NONE', #242, 3.750000000000000000 ) ;
#296 = ORIENTED_EDGE ( 'NONE', *, *, #118, .F. ) ;
#297 = PERSON_AND_ORGANIZATION ( #19, #204 ) ;
#298 = ORIENTED_EDGE ( 'NONE', *, *, #113, .T. ) ;
#299 = EDGE_CURVE ( 'NONE', #239, #56, #211, .T. ) ;
#300 = APPROVAL_PERSON_ORGANIZATION ( #162, #23, #245 ) ;
#301 = CARTESIAN_POINT ( 'NONE',  ( 0.000000000000000000, 0.000000000000000000, 5.199999999999982414 ) ) ;
#302 = DIRECTION ( 'NONE',  ( 0.000000000000000000, 0.000000000000000000, 1.000000000000000000 ) ) ;
#303 = CARTESIAN_POINT ( 'NONE',  ( 0.000000000000000000, 0.000000000000000000, 0.000000000000000000 ) ) ;
#304 = SECURITY_CLASSIFICATION ( '', '', #114 ) ;
#305 = VERTEX_POINT ( 'NONE', #45 ) ;
#306 = EDGE_CURVE ( 'NONE', #115, #229, #295, .T. ) ;
#307 = DIRECTION ( 'NONE',  ( 0.000000000000000000, 0.000000000000000000, 1.000000000000000000 ) ) ;
ENDSEC;
END-ISO-10303-21;
