ISO-10303-21;
HEADER;
FILE_DESCRIPTION (( 'STEP AP203' ),
    '1' );
FILE_NAME ('16cb.STEP',
    '2022-07-07T09:52:38',
    ( '' ),
    ( '' ),
    'SwSTEP 2.0',
    'SolidWorks 2019',
    '' );
FILE_SCHEMA (( 'CONFIG_CONTROL_DESIGN' ));
ENDSEC;

DATA;
#1 = CARTESIAN_POINT ( 'NONE',  ( 0.000000000000000000, 0.000000000000000000, 255.0000000000000000 ) ) ;
#2 = DATE_AND_TIME ( #287, #226 ) ;
#3 = EDGE_LOOP ( 'NONE', ( #100, #38, #270, #53 ) ) ;
#4 = LOCAL_TIME ( 11, 52, 38.00000000000000000, #73 ) ;
#5 = DATE_AND_TIME ( #149, #86 ) ;
#6 = CARTESIAN_POINT ( 'NONE',  ( 0.000000000000000000, 0.000000000000000000, 255.0000000000000000 ) ) ;
#7 = PERSON_AND_ORGANIZATION_ROLE ( 'classification_officer' ) ;
#8 = ORIENTED_EDGE ( 'NONE', *, *, #296, .F. ) ;
#9 = APPROVAL ( #307, 'NEURÈENÝ' ) ;
#10 = DIRECTION ( 'NONE',  ( 1.000000000000000000, 0.000000000000000000, 0.000000000000000000 ) ) ;
#11 = ORIENTED_EDGE ( 'NONE', *, *, #41, .F. ) ;
#12 = AXIS2_PLACEMENT_3D ( 'NONE', #142, #306, #187 ) ;
#13 = DIRECTION ( 'NONE',  ( 1.000000000000000000, 0.000000000000000000, 0.000000000000000000 ) ) ;
#14 = CC_DESIGN_DATE_AND_TIME_ASSIGNMENT ( #49, #189, ( #230 ) ) ;
#15 = ADVANCED_BREP_SHAPE_REPRESENTATION ( '16cb', ( #113, #251 ), #133 ) ;
#16 = APPLICATION_CONTEXT ( 'configuration controlled 3d designs of mechanical parts and assemblies' ) ;
#17 = PRODUCT ( '16cb', '16cb', '', ( #240 ) ) ;
#18 = CARTESIAN_POINT ( 'NONE',  ( 5.300000000000000711, 0.000000000000000000, 5.200000000000009948 ) ) ;
#19 = DIRECTION ( 'NONE',  ( 0.000000000000000000, 0.000000000000000000, 1.000000000000000000 ) ) ;
#20 = EDGE_CURVE ( 'NONE', #131, #265, #178, .T. ) ;
#21 = CARTESIAN_POINT ( 'NONE',  ( 0.000000000000000000, 0.000000000000000000, 5.000000000000000000 ) ) ;
#22 = CARTESIAN_POINT ( 'NONE',  ( 5.100000000000001421, 6.245698675651502811E-16, 255.0000000000000000 ) ) ;
#23 = LINE ( 'NONE', #66, #254 ) ;
#24 = DATE_TIME_ROLE ( 'classification_date' ) ;
#25 = DIRECTION ( 'NONE',  ( -0.000000000000000000, -0.000000000000000000, -1.000000000000000000 ) ) ;
#26 = CC_DESIGN_DATE_AND_TIME_ASSIGNMENT ( #95, #24, ( #259 ) ) ;
#27 = DIRECTION ( 'NONE',  ( 1.000000000000000000, 0.000000000000000000, -0.000000000000000000 ) ) ;
#28 = TOROIDAL_SURFACE ( 'NONE', #115, 5.300000000000000711, 0.2000000000000000111 ) ;
#29 = ORIENTED_EDGE ( 'NONE', *, *, #239, .F. ) ;
#30 = DIRECTION ( 'NONE',  ( -0.000000000000000000, -0.000000000000000000, -1.000000000000000000 ) ) ;
#31 = EDGE_CURVE ( 'NONE', #248, #51, #218, .T. ) ;
#32 = APPROVAL_STATUS ( 'not_yet_approved' ) ;
#33 = DIRECTION ( 'NONE',  ( -0.000000000000000000, -0.000000000000000000, -1.000000000000000000 ) ) ;
#34 = APPROVAL_ROLE ( '' ) ;
#35 = ORIENTED_EDGE ( 'NONE', *, *, #282, .F. ) ;
#36 = APPLICATION_CONTEXT ( 'configuration controlled 3d designs of mechanical parts and assemblies' ) ;
#37 = EDGE_LOOP ( 'NONE', ( #145, #104 ) ) ;
#38 = ORIENTED_EDGE ( 'NONE', *, *, #163, .F. ) ;
#39 = DATE_AND_TIME ( #250, #156 ) ;
#40 = ADVANCED_FACE ( 'NONE', ( #273 ), #184, .T. ) ;
#41 = EDGE_CURVE ( 'NONE', #265, #131, #126, .T. ) ;
#42 = AXIS2_PLACEMENT_3D ( 'NONE', #227, #82, #13 ) ;
#43 = FACE_OUTER_BOUND ( 'NONE', #241, .T. ) ;
#44 = CARTESIAN_POINT ( 'NONE',  ( 0.000000000000000000, 0.000000000000000000, 0.000000000000000000 ) ) ;
#45 = APPLICATION_PROTOCOL_DEFINITION ( 'international standard', 'config_control_design', 1994, #16 ) ;
#46 = ORIENTED_EDGE ( 'NONE', *, *, #200, .F. ) ;
#47 = DIRECTION ( 'NONE',  ( -1.000000000000000000, 0.000000000000000000, 0.000000000000000000 ) ) ;
#48 = ADVANCED_FACE ( 'NONE', ( #98 ), #168, .T. ) ;
#49 = DATE_AND_TIME ( #266, #4 ) ;
#50 = AXIS2_PLACEMENT_3D ( 'NONE', #261, #19, #89 ) ;
#51 = VERTEX_POINT ( 'NONE', #129 ) ;
#52 = APPLICATION_PROTOCOL_DEFINITION ( 'international standard', 'config_control_design', 1994, #36 ) ;
#53 = ORIENTED_EDGE ( 'NONE', *, *, #111, .T. ) ;
#54 = LOCAL_TIME ( 11, 52, 38.00000000000000000, #77 ) ;
#55 = EDGE_CURVE ( 'NONE', #56, #243, #107, .T. ) ;
#56 = VERTEX_POINT ( 'NONE', #247 ) ;
#57 = CC_DESIGN_PERSON_AND_ORGANIZATION_ASSIGNMENT ( #283, #171, ( #286 ) ) ;
#58 = ORIENTED_EDGE ( 'NONE', *, *, #274, .F. ) ;
#59 = SHAPE_DEFINITION_REPRESENTATION ( #258, #15 ) ;
#60 = LINE ( 'NONE', #236, #101 ) ;
#61 = CARTESIAN_POINT ( 'NONE',  ( 5.300000000000000711, 0.000000000000000000, 5.000000000000005329 ) ) ;
#62 = AXIS2_PLACEMENT_3D ( 'NONE', #76, #155, #182 ) ;
#63 = CC_DESIGN_PERSON_AND_ORGANIZATION_ASSIGNMENT ( #99, #215, ( #230 ) ) ;
#64 = CIRCLE ( 'NONE', #214, 5.100000000000001421 ) ;
#65 = DIRECTION ( 'NONE',  ( 0.000000000000000000, 0.000000000000000000, 1.000000000000000000 ) ) ;
#66 = CARTESIAN_POINT ( 'NONE',  ( -5.100000000000001421, 0.000000000000000000, 255.0000000000000000 ) ) ;
#67 = APPROVAL_ROLE ( '' ) ;
#68 =( NAMED_UNIT ( * ) PLANE_ANGLE_UNIT ( ) SI_UNIT ( $, .RADIAN. ) );
#69 = AXIS2_PLACEMENT_3D ( 'NONE', #277, #25, #96 ) ;
#70 = EDGE_LOOP ( 'NONE', ( #29, #221, #192, #284 ) ) ;
#71 = AXIS2_PLACEMENT_3D ( 'NONE', #116, #87, #181 ) ;
#72 = CARTESIAN_POINT ( 'NONE',  ( 0.000000000000000000, 0.000000000000000000, 5.000000000000000000 ) ) ;
#73 = COORDINATED_UNIVERSAL_TIME_OFFSET ( 1, 0, .AHEAD. ) ;
#74 =( LENGTH_UNIT ( ) NAMED_UNIT ( * ) SI_UNIT ( .MILLI., .METRE. ) );
#75 = EDGE_LOOP ( 'NONE', ( #150, #79, #11, #58 ) ) ;
#76 = CARTESIAN_POINT ( 'NONE',  ( 0.000000000000000000, 0.000000000000000000, 5.200000000000009948 ) ) ;
#77 = COORDINATED_UNIVERSAL_TIME_OFFSET ( 1, 0, .AHEAD. ) ;
#78 = CARTESIAN_POINT ( 'NONE',  ( -5.300000000000000711, 6.490628035480972910E-16, 5.200000000000009948 ) ) ;
#79 = ORIENTED_EDGE ( 'NONE', *, *, #239, .T. ) ;
#80 = CARTESIAN_POINT ( 'NONE',  ( 0.000000000000000000, 0.000000000000000000, 5.000000000000000000 ) ) ;
#81 = UNCERTAINTY_MEASURE_WITH_UNIT (LENGTH_MEASURE( 1.000000000000000082E-05 ), #74, 'distance_accuracy_value', 'NONE');
#82 = DIRECTION ( 'NONE',  ( -0.000000000000000000, -0.000000000000000000, -1.000000000000000000 ) ) ;
#83 = AXIS2_PLACEMENT_3D ( 'NONE', #153, #202, #297 ) ;
#84 = CIRCLE ( 'NONE', #139, 8.000000000000000000 ) ;
#85 = DIRECTION ( 'NONE',  ( 0.000000000000000000, -1.000000000000000000, 0.000000000000000000 ) ) ;
#86 = LOCAL_TIME ( 11, 52, 38.00000000000000000, #222 ) ;
#87 = DIRECTION ( 'NONE',  ( 0.000000000000000000, 0.000000000000000000, 1.000000000000000000 ) ) ;
#88 = FACE_OUTER_BOUND ( 'NONE', #223, .T. ) ;
#89 = DIRECTION ( 'NONE',  ( 1.000000000000000000, 0.000000000000000000, 0.000000000000000000 ) ) ;
#90 = CARTESIAN_POINT ( 'NONE',  ( 0.000000000000000000, 0.000000000000000000, 0.000000000000000000 ) ) ;
#91 = ADVANCED_FACE ( 'NONE', ( #105 ), #28, .F. ) ;
#92 = CARTESIAN_POINT ( 'NONE',  ( -8.000000000000000000, 0.000000000000000000, 0.000000000000000000 ) ) ;
#93 = AXIS2_PLACEMENT_3D ( 'NONE', #18, #85, #256 ) ;
#94 = CARTESIAN_POINT ( 'NONE',  ( -5.100000000000001421, 0.000000000000000000, 255.0000000000000000 ) ) ;
#95 = DATE_AND_TIME ( #198, #54 ) ;
#96 = DIRECTION ( 'NONE',  ( -1.000000000000000000, 0.000000000000000000, 0.000000000000000000 ) ) ;
#97 = APPROVAL_ROLE ( '' ) ;
#98 = FACE_OUTER_BOUND ( 'NONE', #3, .T. ) ;
#99 = PERSON_AND_ORGANIZATION ( #197, #112 ) ;
#100 = ORIENTED_EDGE ( 'NONE', *, *, #245, .F. ) ;
#101 = VECTOR ( 'NONE', #136, 1000.000000000000000 ) ;
#102 = DIRECTION ( 'NONE',  ( 0.000000000000000000, 0.000000000000000000, 1.000000000000000000 ) ) ;
#103 = PERSON_AND_ORGANIZATION ( #197, #112 ) ;
#104 = ORIENTED_EDGE ( 'NONE', *, *, #252, .T. ) ;
#105 = FACE_OUTER_BOUND ( 'NONE', #75, .T. ) ;
#106 = CIRCLE ( 'NONE', #62, 5.100000000000001421 ) ;
#107 = CIRCLE ( 'NONE', #298, 8.000000000000000000 ) ;
#108 = CC_DESIGN_PERSON_AND_ORGANIZATION_ASSIGNMENT ( #244, #7, ( #259 ) ) ;
#109 = ORIENTED_EDGE ( 'NONE', *, *, #252, .F. ) ;
#110 = ORIENTED_EDGE ( 'NONE', *, *, #200, .T. ) ;
#111 = EDGE_CURVE ( 'NONE', #51, #248, #106, .T. ) ;
#112 = ORGANIZATION ( 'NEURÈENÝ', 'NEURÈENÝ', '' ) ;
#113 = MANIFOLD_SOLID_BREP ( 'Zaoblit1', #211 ) ;
#114 = DIRECTION ( 'NONE',  ( -0.000000000000000000, -0.000000000000000000, -1.000000000000000000 ) ) ;
#115 = AXIS2_PLACEMENT_3D ( 'NONE', #148, #135, #231 ) ;
#116 = CARTESIAN_POINT ( 'NONE',  ( 0.000000000000000000, 0.000000000000000000, 0.000000000000000000 ) ) ;
#117 = DIRECTION ( 'NONE',  ( 1.000000000000000000, 0.000000000000000000, 0.000000000000000000 ) ) ;
#118 = AXIS2_PLACEMENT_3D ( 'NONE', #21, #208, #304 ) ;
#119 = AXIS2_PLACEMENT_3D ( 'NONE', #72, #33, #10 ) ;
#120 = CARTESIAN_POINT ( 'NONE',  ( 0.000000000000000000, 0.000000000000000000, 255.0000000000000000 ) ) ;
#121 = DIRECTION ( 'NONE',  ( 0.000000000000000000, 0.000000000000000000, 1.000000000000000000 ) ) ;
#122 = PERSON_AND_ORGANIZATION ( #197, #112 ) ;
#123 = AXIS2_PLACEMENT_3D ( 'NONE', #120, #212, #164 ) ;
#124 = EDGE_LOOP ( 'NONE', ( #8, #169 ) ) ;
#125 = DIRECTION ( 'NONE',  ( -0.000000000000000000, -0.000000000000000000, -1.000000000000000000 ) ) ;
#126 = CIRCLE ( 'NONE', #119, 5.300000000000000711 ) ;
#127 = PERSON_AND_ORGANIZATION_ROLE ( 'design_owner' ) ;
#128 = EDGE_LOOP ( 'NONE', ( #110, #190 ) ) ;
#129 = CARTESIAN_POINT ( 'NONE',  ( -5.100000000000001421, 0.000000000000000000, 5.200000000000009948 ) ) ;
#130 = APPROVAL_PERSON_ORGANIZATION ( #188, #170, #97 ) ;
#131 = VERTEX_POINT ( 'NONE', #151 ) ;
#132 = ORIENTED_EDGE ( 'NONE', *, *, #152, .F. ) ;
#133 =( GEOMETRIC_REPRESENTATION_CONTEXT ( 3 ) GLOBAL_UNCERTAINTY_ASSIGNED_CONTEXT ( ( #81 ) ) GLOBAL_UNIT_ASSIGNED_CONTEXT ( ( #74, #68, #191 ) ) REPRESENTATION_CONTEXT ( 'NONE', 'WORKASPACE' ) );
#134 = FACE_OUTER_BOUND ( 'NONE', #70, .T. ) ;
#135 = DIRECTION ( 'NONE',  ( 0.000000000000000000, 0.000000000000000000, 1.000000000000000000 ) ) ;
#136 = DIRECTION ( 'NONE',  ( -0.000000000000000000, -0.000000000000000000, -1.000000000000000000 ) ) ;
#137 = PLANE ( 'NONE',  #154 ) ;
#138 = CC_DESIGN_PERSON_AND_ORGANIZATION_ASSIGNMENT ( #238, #127, ( #17 ) ) ;
#139 = AXIS2_PLACEMENT_3D ( 'NONE', #90, #204, #301 ) ;
#140 = FACE_OUTER_BOUND ( 'NONE', #37, .T. ) ;
#141 = VECTOR ( 'NONE', #203, 1000.000000000000000 ) ;
#142 = CARTESIAN_POINT ( 'NONE',  ( 0.000000000000000000, 0.000000000000000000, 5.000000000000000000 ) ) ;
#143 = AXIS2_PLACEMENT_3D ( 'NONE', #257, #121, #117 ) ;
#144 = CARTESIAN_POINT ( 'NONE',  ( 0.000000000000000000, 0.000000000000000000, 0.000000000000000000 ) ) ;
#145 = ORIENTED_EDGE ( 'NONE', *, *, #163, .T. ) ;
#146 = TOROIDAL_SURFACE ( 'NONE', #50, 5.300000000000000711, 0.2000000000000000111 ) ;
#147 = ORIENTED_EDGE ( 'NONE', *, *, #193, .F. ) ;
#148 = CARTESIAN_POINT ( 'NONE',  ( 0.000000000000000000, 0.000000000000000000, 5.200000000000009948 ) ) ;
#149 = CALENDAR_DATE ( 2022, 7, 7 ) ;
#150 = ORIENTED_EDGE ( 'NONE', *, *, #111, .F. ) ;
#151 = CARTESIAN_POINT ( 'NONE',  ( -5.300000000000000711, 6.490628035480971924E-16, 5.000000000000005329 ) ) ;
#152 = EDGE_CURVE ( 'NONE', #243, #267, #249, .T. ) ;
#153 = CARTESIAN_POINT ( 'NONE',  ( 0.000000000000000000, 0.000000000000000000, 5.200000000000009948 ) ) ;
#154 = AXIS2_PLACEMENT_3D ( 'NONE', #209, #65, #165 ) ;
#155 = DIRECTION ( 'NONE',  ( 0.000000000000000000, 0.000000000000000000, 1.000000000000000000 ) ) ;
#156 = LOCAL_TIME ( 11, 52, 38.00000000000000000, #166 ) ;
#157 = ADVANCED_FACE ( 'NONE', ( #134 ), #146, .F. ) ;
#158 = CC_DESIGN_APPROVAL ( #170, ( #230 ) ) ;
#159 = DIRECTION ( 'NONE',  ( -1.000000000000000000, 1.224646799147353454E-16, 0.000000000000000000 ) ) ;
#160 = ADVANCED_FACE ( 'NONE', ( #140 ), #137, .T. ) ;
#161 = CIRCLE ( 'NONE', #93, 0.1999999999999996503 ) ;
#162 = PLANE ( 'NONE',  #255 ) ;
#163 = EDGE_CURVE ( 'NONE', #199, #175, #64, .T. ) ;
#164 = DIRECTION ( 'NONE',  ( 1.000000000000000000, 0.000000000000000000, 0.000000000000000000 ) ) ;
#165 = DIRECTION ( 'NONE',  ( 1.000000000000000000, 0.000000000000000000, -0.000000000000000000 ) ) ;
#166 = COORDINATED_UNIVERSAL_TIME_OFFSET ( 1, 0, .AHEAD. ) ;
#167 = ORIENTED_EDGE ( 'NONE', *, *, #152, .T. ) ;
#168 = CYLINDRICAL_SURFACE ( 'NONE', #290, 5.100000000000001421 ) ;
#169 = ORIENTED_EDGE ( 'NONE', *, *, #280, .F. ) ;
#170 = APPROVAL ( #216, 'NEURÈENÝ' ) ;
#171 = PERSON_AND_ORGANIZATION_ROLE ( 'design_supplier' ) ;
#172 = EDGE_LOOP ( 'NONE', ( #225, #289, #196, #132 ) ) ;
#173 = DIRECTION ( 'NONE',  ( 0.000000000000000000, 0.000000000000000000, 1.000000000000000000 ) ) ;
#174 = DIRECTION ( 'NONE',  ( 1.224646799147353207E-16, 1.000000000000000000, -0.000000000000000000 ) ) ;
#175 = VERTEX_POINT ( 'NONE', #263 ) ;
#176 = CIRCLE ( 'NONE', #71, 8.000000000000000000 ) ;
#177 = ORIENTED_EDGE ( 'NONE', *, *, #31, .T. ) ;
#178 = CIRCLE ( 'NONE', #42, 5.300000000000000711 ) ;
#179 = DESIGN_CONTEXT ( 'detailed design', #36, 'design' ) ;
#180 = VERTEX_POINT ( 'NONE', #305 ) ;
#181 = DIRECTION ( 'NONE',  ( 1.000000000000000000, 0.000000000000000000, 0.000000000000000000 ) ) ;
#182 = DIRECTION ( 'NONE',  ( 1.000000000000000000, 0.000000000000000000, 0.000000000000000000 ) ) ;
#183 = CYLINDRICAL_SURFACE ( 'NONE', #69, 5.100000000000001421 ) ;
#184 = CYLINDRICAL_SURFACE ( 'NONE', #253, 8.000000000000000000 ) ;
#185 = CARTESIAN_POINT ( 'NONE',  ( -8.000000000000000000, 0.000000000000000000, 5.000000000000000000 ) ) ;
#186 = CIRCLE ( 'NONE', #123, 5.100000000000001421 ) ;
#187 = DIRECTION ( 'NONE',  ( 1.000000000000000000, 0.000000000000000000, -0.000000000000000000 ) ) ;
#188 = PERSON_AND_ORGANIZATION ( #197, #112 ) ;
#189 = DATE_TIME_ROLE ( 'creation_date' ) ;
#190 = ORIENTED_EDGE ( 'NONE', *, *, #55, .T. ) ;
#191 =( NAMED_UNIT ( * ) SI_UNIT ( $, .STERADIAN. ) SOLID_ANGLE_UNIT ( ) );
#192 = ORIENTED_EDGE ( 'NONE', *, *, #274, .T. ) ;
#193 = EDGE_CURVE ( 'NONE', #199, #51, #23, .T. ) ;
#194 = DIRECTION ( 'NONE',  ( 1.000000000000000000, 0.000000000000000000, 0.000000000000000000 ) ) ;
#195 = DIRECTION ( 'NONE',  ( 1.000000000000000000, 0.000000000000000000, 0.000000000000000000 ) ) ;
#196 = ORIENTED_EDGE ( 'NONE', *, *, #280, .T. ) ;
#197 = PERSON ( 'NEURÈENÝ', 'NEURÈENÝ', 'NEURÈENÝ', ('NEURÈENÝ'), ('NEURÈENÝ'), ('NEURÈENÝ') ) ;
#198 = CALENDAR_DATE ( 2022, 7, 7 ) ;
#199 = VERTEX_POINT ( 'NONE', #94 ) ;
#200 = EDGE_CURVE ( 'NONE', #243, #56, #276, .T. ) ;
#201 = ORIENTED_EDGE ( 'NONE', *, *, #296, .T. ) ;
#202 = DIRECTION ( 'NONE',  ( 0.000000000000000000, 0.000000000000000000, 1.000000000000000000 ) ) ;
#203 = DIRECTION ( 'NONE',  ( -0.000000000000000000, -0.000000000000000000, -1.000000000000000000 ) ) ;
#204 = DIRECTION ( 'NONE',  ( 0.000000000000000000, 0.000000000000000000, 1.000000000000000000 ) ) ;
#205 = DIRECTION ( 'NONE',  ( 1.000000000000000000, 0.000000000000000000, 0.000000000000000000 ) ) ;
#206 = CIRCLE ( 'NONE', #285, 0.1999999999999996503 ) ;
#207 = VECTOR ( 'NONE', #114, 1000.000000000000000 ) ;
#208 = DIRECTION ( 'NONE',  ( -0.000000000000000000, -0.000000000000000000, -1.000000000000000000 ) ) ;
#209 = CARTESIAN_POINT ( 'NONE',  ( 0.000000000000000000, 0.000000000000000000, 255.0000000000000000 ) ) ;
#210 = CC_DESIGN_PERSON_AND_ORGANIZATION_ASSIGNMENT ( #103, #288, ( #286 ) ) ;
#211 = CLOSED_SHELL ( 'NONE', ( #91, #233, #40, #291, #224, #300, #48, #160, #157 ) ) ;
#212 = DIRECTION ( 'NONE',  ( 0.000000000000000000, 0.000000000000000000, 1.000000000000000000 ) ) ;
#213 = FACE_BOUND ( 'NONE', #272, .T. ) ;
#214 = AXIS2_PLACEMENT_3D ( 'NONE', #1, #302, #205 ) ;
#215 = PERSON_AND_ORGANIZATION_ROLE ( 'creator' ) ;
#216 = APPROVAL_STATUS ( 'not_yet_approved' ) ;
#217 = DIRECTION ( 'NONE',  ( -1.000000000000000000, 0.000000000000000000, 0.000000000000000000 ) ) ;
#218 = CIRCLE ( 'NONE', #83, 5.100000000000001421 ) ;
#219 = COORDINATED_UNIVERSAL_TIME_OFFSET ( 1, 0, .AHEAD. ) ;
#220 = APPROVAL_DATE_TIME ( #5, #268 ) ;
#221 = ORIENTED_EDGE ( 'NONE', *, *, #31, .F. ) ;
#222 = COORDINATED_UNIVERSAL_TIME_OFFSET ( 1, 0, .AHEAD. ) ;
#223 = EDGE_LOOP ( 'NONE', ( #109, #293, #177, #147 ) ) ;
#224 = ADVANCED_FACE ( 'NONE', ( #213, #303 ), #279, .T. ) ;
#225 = ORIENTED_EDGE ( 'NONE', *, *, #55, .F. ) ;
#226 = LOCAL_TIME ( 11, 52, 38.00000000000000000, #219 ) ;
#227 = CARTESIAN_POINT ( 'NONE',  ( 0.000000000000000000, 0.000000000000000000, 5.000000000000000000 ) ) ;
#228 = CC_DESIGN_APPROVAL ( #268, ( #286 ) ) ;
#229 = CARTESIAN_POINT ( 'NONE',  ( -8.000000000000000000, 0.000000000000000000, 5.000000000000000000 ) ) ;
#230 = PRODUCT_DEFINITION ( 'NEZNÁMÝ', '', #286, #179 ) ;
#231 = DIRECTION ( 'NONE',  ( 1.000000000000000000, 0.000000000000000000, 0.000000000000000000 ) ) ;
#232 = CC_DESIGN_APPROVAL ( #9, ( #259 ) ) ;
#233 = ADVANCED_FACE ( 'NONE', ( #88 ), #183, .T. ) ;
#234 = DIRECTION ( 'NONE',  ( -0.000000000000000000, -0.000000000000000000, -1.000000000000000000 ) ) ;
#235 = CYLINDRICAL_SURFACE ( 'NONE', #118, 8.000000000000000000 ) ;
#236 = CARTESIAN_POINT ( 'NONE',  ( 8.000000000000000000, 9.797174393178825657E-16, 5.000000000000000000 ) ) ;
#237 = CARTESIAN_POINT ( 'NONE',  ( 0.000000000000000000, 0.000000000000000000, 5.000000000000000000 ) ) ;
#238 = PERSON_AND_ORGANIZATION ( #197, #112 ) ;
#239 = EDGE_CURVE ( 'NONE', #51, #131, #206, .T. ) ;
#240 = MECHANICAL_CONTEXT ( 'NONE', #16, 'mechanical' ) ;
#241 = EDGE_LOOP ( 'NONE', ( #35, #46, #167, #201 ) ) ;
#242 = PERSON_AND_ORGANIZATION ( #197, #112 ) ;
#243 = VERTEX_POINT ( 'NONE', #185 ) ;
#244 = PERSON_AND_ORGANIZATION ( #197, #112 ) ;
#245 = EDGE_CURVE ( 'NONE', #175, #248, #278, .T. ) ;
#246 = ORIENTED_EDGE ( 'NONE', *, *, #20, .T. ) ;
#247 = CARTESIAN_POINT ( 'NONE',  ( 8.000000000000000000, 9.797174393178825657E-16, 5.000000000000000000 ) ) ;
#248 = VERTEX_POINT ( 'NONE', #260 ) ;
#249 = LINE ( 'NONE', #229, #141 ) ;
#250 = CALENDAR_DATE ( 2022, 7, 7 ) ;
#251 = AXIS2_PLACEMENT_3D ( 'NONE', #144, #292, #195 ) ;
#252 = EDGE_CURVE ( 'NONE', #175, #199, #186, .T. ) ;
#253 = AXIS2_PLACEMENT_3D ( 'NONE', #237, #125, #217 ) ;
#254 = VECTOR ( 'NONE', #234, 1000.000000000000000 ) ;
#255 = AXIS2_PLACEMENT_3D ( 'NONE', #44, #173, #27 ) ;
#256 = DIRECTION ( 'NONE',  ( 0.000000000000000000, 0.000000000000000000, -1.000000000000000000 ) ) ;
#257 = CARTESIAN_POINT ( 'NONE',  ( 0.000000000000000000, 0.000000000000000000, 5.000000000000000000 ) ) ;
#258 = PRODUCT_DEFINITION_SHAPE ( 'NONE', 'NONE',  #230 ) ;
#259 = SECURITY_CLASSIFICATION ( '', '', #269 ) ;
#260 = CARTESIAN_POINT ( 'NONE',  ( 5.100000000000001421, 6.245698675651502811E-16, 5.200000000000009948 ) ) ;
#261 = CARTESIAN_POINT ( 'NONE',  ( 0.000000000000000000, 0.000000000000000000, 5.200000000000009948 ) ) ;
#262 = PRODUCT_RELATED_PRODUCT_CATEGORY ( 'detail', '', ( #17 ) ) ;
#263 = CARTESIAN_POINT ( 'NONE',  ( 5.100000000000001421, 6.245698675651502811E-16, 255.0000000000000000 ) ) ;
#264 = CC_DESIGN_SECURITY_CLASSIFICATION ( #259, ( #286 ) ) ;
#265 = VERTEX_POINT ( 'NONE', #61 ) ;
#266 = CALENDAR_DATE ( 2022, 7, 7 ) ;
#267 = VERTEX_POINT ( 'NONE', #92 ) ;
#268 = APPROVAL ( #32, 'NEURÈENÝ' ) ;
#269 = SECURITY_CLASSIFICATION_LEVEL ( 'unclassified' ) ;
#270 = ORIENTED_EDGE ( 'NONE', *, *, #193, .T. ) ;
#271 = APPROVAL_DATE_TIME ( #2, #170 ) ;
#272 = EDGE_LOOP ( 'NONE', ( #295, #246 ) ) ;
#273 = FACE_OUTER_BOUND ( 'NONE', #172, .T. ) ;
#274 = EDGE_CURVE ( 'NONE', #248, #265, #161, .T. ) ;
#275 = APPROVAL_DATE_TIME ( #39, #9 ) ;
#276 = CIRCLE ( 'NONE', #143, 8.000000000000000000 ) ;
#277 = CARTESIAN_POINT ( 'NONE',  ( 0.000000000000000000, 0.000000000000000000, 255.0000000000000000 ) ) ;
#278 = LINE ( 'NONE', #22, #207 ) ;
#279 = PLANE ( 'NONE',  #12 ) ;
#280 = EDGE_CURVE ( 'NONE', #180, #267, #176, .T. ) ;
#281 = FACE_OUTER_BOUND ( 'NONE', #124, .T. ) ;
#282 = EDGE_CURVE ( 'NONE', #56, #180, #60, .T. ) ;
#283 = PERSON_AND_ORGANIZATION ( #197, #112 ) ;
#284 = ORIENTED_EDGE ( 'NONE', *, *, #20, .F. ) ;
#285 = AXIS2_PLACEMENT_3D ( 'NONE', #78, #174, #159 ) ;
#286 = PRODUCT_DEFINITION_FORMATION_WITH_SPECIFIED_SOURCE ( 'LIBOVOLNÝ', '', #17, .NOT_KNOWN. ) ;
#287 = CALENDAR_DATE ( 2022, 7, 7 ) ;
#288 = PERSON_AND_ORGANIZATION_ROLE ( 'creator' ) ;
#289 = ORIENTED_EDGE ( 'NONE', *, *, #282, .T. ) ;
#290 = AXIS2_PLACEMENT_3D ( 'NONE', #6, #30, #47 ) ;
#291 = ADVANCED_FACE ( 'NONE', ( #43 ), #235, .T. ) ;
#292 = DIRECTION ( 'NONE',  ( 0.000000000000000000, 0.000000000000000000, 1.000000000000000000 ) ) ;
#293 = ORIENTED_EDGE ( 'NONE', *, *, #245, .T. ) ;
#294 = APPROVAL_PERSON_ORGANIZATION ( #122, #9, #67 ) ;
#295 = ORIENTED_EDGE ( 'NONE', *, *, #41, .T. ) ;
#296 = EDGE_CURVE ( 'NONE', #267, #180, #84, .T. ) ;
#297 = DIRECTION ( 'NONE',  ( 1.000000000000000000, 0.000000000000000000, 0.000000000000000000 ) ) ;
#298 = AXIS2_PLACEMENT_3D ( 'NONE', #80, #102, #194 ) ;
#299 = APPROVAL_PERSON_ORGANIZATION ( #242, #268, #34 ) ;
#300 = ADVANCED_FACE ( 'NONE', ( #281 ), #162, .F. ) ;
#301 = DIRECTION ( 'NONE',  ( 1.000000000000000000, 0.000000000000000000, 0.000000000000000000 ) ) ;
#302 = DIRECTION ( 'NONE',  ( 0.000000000000000000, 0.000000000000000000, 1.000000000000000000 ) ) ;
#303 = FACE_OUTER_BOUND ( 'NONE', #128, .T. ) ;
#304 = DIRECTION ( 'NONE',  ( -1.000000000000000000, 0.000000000000000000, 0.000000000000000000 ) ) ;
#305 = CARTESIAN_POINT ( 'NONE',  ( 8.000000000000000000, 9.797174393178825657E-16, 0.000000000000000000 ) ) ;
#306 = DIRECTION ( 'NONE',  ( 0.000000000000000000, 0.000000000000000000, 1.000000000000000000 ) ) ;
#307 = APPROVAL_STATUS ( 'not_yet_approved' ) ;
ENDSEC;
END-ISO-10303-21;
