ISO-10303-21;
HEADER;
FILE_DESCRIPTION (( 'STEP AP203' ),
    '1' );
FILE_NAME ('f2c7.STEP',
    '2022-07-07T10:35:04',
    ( '' ),
    ( '' ),
    'SwSTEP 2.0',
    'SolidWorks 2019',
    '' );
FILE_SCHEMA (( 'CONFIG_CONTROL_DESIGN' ));
ENDSEC;

DATA;
#1 = CARTESIAN_POINT ( 'NONE',  ( 0.000000000000000000, 0.000000000000000000, 402.0000000000000000 ) ) ;
#2 = APPROVAL_DATE_TIME ( #172, #214 ) ;
#3 = DIRECTION ( 'NONE',  ( 0.000000000000000000, 0.000000000000000000, 1.000000000000000000 ) ) ;
#4 = DIRECTION ( 'NONE',  ( 0.000000000000000000, 0.000000000000000000, 1.000000000000000000 ) ) ;
#5 = AXIS2_PLACEMENT_3D ( 'NONE', #54, #264, #52 ) ;
#6 = DIRECTION ( 'NONE',  ( 1.000000000000000000, 0.000000000000000000, 0.000000000000000000 ) ) ;
#7 = FACE_OUTER_BOUND ( 'NONE', #148, .T. ) ;
#8 = VERTEX_POINT ( 'NONE', #26 ) ;
#9 = APPROVAL_PERSON_ORGANIZATION ( #221, #55, #302 ) ;
#10 = ORIENTED_EDGE ( 'NONE', *, *, #218, .F. ) ;
#11 = PERSON ( 'NEURÈENÝ', 'NEURÈENÝ', 'NEURÈENÝ', ('NEURÈENÝ'), ('NEURÈENÝ'), ('NEURÈENÝ') ) ;
#12 = CALENDAR_DATE ( 2022, 7, 7 ) ;
#13 = ORIENTED_EDGE ( 'NONE', *, *, #69, .T. ) ;
#14 = PERSON_AND_ORGANIZATION_ROLE ( 'design_owner' ) ;
#15 = DIRECTION ( 'NONE',  ( 1.000000000000000000, 0.000000000000000000, -0.000000000000000000 ) ) ;
#16 = AXIS2_PLACEMENT_3D ( 'NONE', #223, #255, #251 ) ;
#17 = DATE_TIME_ROLE ( 'creation_date' ) ;
#18 = DIRECTION ( 'NONE',  ( 1.000000000000000000, 0.000000000000000000, 0.000000000000000000 ) ) ;
#19 = ADVANCED_BREP_SHAPE_REPRESENTATION ( 'f2c7', ( #283, #228 ), #261 ) ;
#20 = PERSON_AND_ORGANIZATION ( #11, #282 ) ;
#21 = CARTESIAN_POINT ( 'NONE',  ( 0.000000000000000000, 0.000000000000000000, 2.000000000000000000 ) ) ;
#22 = COORDINATED_UNIVERSAL_TIME_OFFSET ( 1, 0, .AHEAD. ) ;
#23 = ORIENTED_EDGE ( 'NONE', *, *, #246, .T. ) ;
#24 = CALENDAR_DATE ( 2022, 7, 7 ) ;
#25 = CC_DESIGN_PERSON_AND_ORGANIZATION_ASSIGNMENT ( #249, #128, ( #62 ) ) ;
#26 = CARTESIAN_POINT ( 'NONE',  ( -1.000000000000000000, 0.000000000000000000, 402.0000000000000000 ) ) ;
#27 = CARTESIAN_POINT ( 'NONE',  ( 1.200000000000000178, 0.000000000000000000, 1.999999999999989564 ) ) ;
#28 = DIRECTION ( 'NONE',  ( 1.000000000000000000, 0.000000000000000000, 0.000000000000000000 ) ) ;
#29 = CIRCLE ( 'NONE', #161, 0.2000000000000000944 ) ;
#30 = EDGE_CURVE ( 'NONE', #167, #274, #44, .T. ) ;
#31 = FACE_OUTER_BOUND ( 'NONE', #87, .T. ) ;
#32 = AXIS2_PLACEMENT_3D ( 'NONE', #303, #72, #174 ) ;
#33 = TOROIDAL_SURFACE ( 'NONE', #265, 1.200000000000000178, 0.2000000000000000111 ) ;
#34 = ADVANCED_FACE ( 'NONE', ( #149 ), #257, .T. ) ;
#35 = ORIENTED_EDGE ( 'NONE', *, *, #187, .T. ) ;
#36 = VERTEX_POINT ( 'NONE', #155 ) ;
#37 = EDGE_LOOP ( 'NONE', ( #125, #39, #63, #114 ) ) ;
#38 = LOCAL_TIME ( 12, 35, 4.000000000000000000, #296 ) ;
#39 = ORIENTED_EDGE ( 'NONE', *, *, #101, .F. ) ;
#40 = SHAPE_DEFINITION_REPRESENTATION ( #266, #19 ) ;
#41 = EDGE_CURVE ( 'NONE', #36, #216, #206, .T. ) ;
#42 = DIRECTION ( 'NONE',  ( 0.000000000000000000, 0.000000000000000000, 1.000000000000000000 ) ) ;
#43 = DIRECTION ( 'NONE',  ( 1.000000000000000000, 0.000000000000000000, 0.000000000000000000 ) ) ;
#44 = CIRCLE ( 'NONE', #258, 1.200000000000000178 ) ;
#45 = ORIENTED_EDGE ( 'NONE', *, *, #101, .T. ) ;
#46 = PERSON_AND_ORGANIZATION_ROLE ( 'creator' ) ;
#47 = FACE_OUTER_BOUND ( 'NONE', #300, .T. ) ;
#48 = VERTEX_POINT ( 'NONE', #92 ) ;
#49 = APPLICATION_CONTEXT ( 'configuration controlled 3d designs of mechanical parts and assemblies' ) ;
#50 = PERSON_AND_ORGANIZATION ( #11, #282 ) ;
#51 = LINE ( 'NONE', #129, #158 ) ;
#52 = DIRECTION ( 'NONE',  ( -1.000000000000000000, 1.224646799147351975E-16, 0.000000000000000000 ) ) ;
#53 = CC_DESIGN_APPROVAL ( #55, ( #78 ) ) ;
#54 = CARTESIAN_POINT ( 'NONE',  ( -1.200000000000000178, 1.469576158976823799E-16, 2.199999999999979750 ) ) ;
#55 = APPROVAL ( #272, 'NEURÈENÝ' ) ;
#56 = PRODUCT ( 'f2c7', 'f2c7', '', ( #73 ) ) ;
#57 = DIRECTION ( 'NONE',  ( 1.000000000000000000, 0.000000000000000000, -0.000000000000000000 ) ) ;
#58 = CYLINDRICAL_SURFACE ( 'NONE', #120, 2.000000000000000000 ) ;
#59 = CARTESIAN_POINT ( 'NONE',  ( 0.000000000000000000, 0.000000000000000000, 2.000000000000000000 ) ) ;
#60 = ORIENTED_EDGE ( 'NONE', *, *, #150, .T. ) ;
#61 = CIRCLE ( 'NONE', #5, 0.2000000000000000944 ) ;
#62 = SECURITY_CLASSIFICATION ( '', '', #105 ) ;
#63 = ORIENTED_EDGE ( 'NONE', *, *, #109, .T. ) ;
#64 = CC_DESIGN_PERSON_AND_ORGANIZATION_ASSIGNMENT ( #66, #113, ( #78 ) ) ;
#65 = CC_DESIGN_APPROVAL ( #151, ( #305 ) ) ;
#66 = PERSON_AND_ORGANIZATION ( #11, #282 ) ;
#67 = ORIENTED_EDGE ( 'NONE', *, *, #109, .F. ) ;
#68 = DIRECTION ( 'NONE',  ( 0.000000000000000000, 0.000000000000000000, 1.000000000000000000 ) ) ;
#69 = EDGE_CURVE ( 'NONE', #48, #215, #51, .T. ) ;
#70 = FACE_OUTER_BOUND ( 'NONE', #248, .T. ) ;
#71 = CIRCLE ( 'NONE', #242, 1.000000000000000000 ) ;
#72 = DIRECTION ( 'NONE',  ( 0.000000000000000000, 0.000000000000000000, 1.000000000000000000 ) ) ;
#73 = MECHANICAL_CONTEXT ( 'NONE', #237, 'mechanical' ) ;
#74 = ORIENTED_EDGE ( 'NONE', *, *, #144, .T. ) ;
#75 = CARTESIAN_POINT ( 'NONE',  ( 0.000000000000000000, 0.000000000000000000, 2.199999999999979750 ) ) ;
#76 = ADVANCED_FACE ( 'NONE', ( #138, #70 ), #86, .T. ) ;
#77 = CARTESIAN_POINT ( 'NONE',  ( 0.000000000000000000, 0.000000000000000000, 0.000000000000000000 ) ) ;
#78 = PRODUCT_DEFINITION_FORMATION_WITH_SPECIFIED_SOURCE ( 'LIBOVOLNÝ', '', #56, .NOT_KNOWN. ) ;
#79 = DIRECTION ( 'NONE',  ( 0.000000000000000000, 0.000000000000000000, 1.000000000000000000 ) ) ;
#80 = DIRECTION ( 'NONE',  ( 1.000000000000000000, 0.000000000000000000, 0.000000000000000000 ) ) ;
#81 = UNCERTAINTY_MEASURE_WITH_UNIT (LENGTH_MEASURE( 1.000000000000000082E-05 ), #84, 'distance_accuracy_value', 'NONE');
#82 = DIRECTION ( 'NONE',  ( -1.000000000000000000, 0.000000000000000000, 0.000000000000000000 ) ) ;
#83 = CC_DESIGN_APPROVAL ( #214, ( #62 ) ) ;
#84 =( LENGTH_UNIT ( ) NAMED_UNIT ( * ) SI_UNIT ( .MILLI., .METRE. ) );
#85 = DATE_AND_TIME ( #231, #38 ) ;
#86 = PLANE ( 'NONE',  #239 ) ;
#87 = EDGE_LOOP ( 'NONE', ( #171, #74, #126, #67 ) ) ;
#88 = CARTESIAN_POINT ( 'NONE',  ( 1.000000000000000000, 1.224646799147353207E-16, 402.0000000000000000 ) ) ;
#89 = APPROVAL_DATE_TIME ( #85, #151 ) ;
#90 = DIRECTION ( 'NONE',  ( -0.000000000000000000, -0.000000000000000000, -1.000000000000000000 ) ) ;
#91 = TOROIDAL_SURFACE ( 'NONE', #142, 1.200000000000000178, 0.2000000000000000111 ) ;
#92 = CARTESIAN_POINT ( 'NONE',  ( -2.000000000000000000, 0.000000000000000000, 2.000000000000000000 ) ) ;
#93 = PLANE ( 'NONE',  #185 ) ;
#94 = FACE_OUTER_BOUND ( 'NONE', #217, .T. ) ;
#95 = AXIS2_PLACEMENT_3D ( 'NONE', #276, #154, #253 ) ;
#96 = CC_DESIGN_PERSON_AND_ORGANIZATION_ASSIGNMENT ( #175, #275, ( #78 ) ) ;
#97 = AXIS2_PLACEMENT_3D ( 'NONE', #212, #79, #80 ) ;
#98 = CARTESIAN_POINT ( 'NONE',  ( 2.000000000000000000, 2.449293598294706414E-16, 2.000000000000000000 ) ) ;
#99 = DIRECTION ( 'NONE',  ( 0.000000000000000000, -1.000000000000000000, 0.000000000000000000 ) ) ;
#100 = CARTESIAN_POINT ( 'NONE',  ( 0.000000000000000000, 0.000000000000000000, 402.0000000000000000 ) ) ;
#101 = EDGE_CURVE ( 'NONE', #8, #270, #295, .T. ) ;
#102 = EDGE_CURVE ( 'NONE', #216, #36, #252, .T. ) ;
#103 = CC_DESIGN_DATE_AND_TIME_ASSIGNMENT ( #304, #17, ( #305 ) ) ;
#104 = ORIENTED_EDGE ( 'NONE', *, *, #246, .F. ) ;
#105 = SECURITY_CLASSIFICATION_LEVEL ( 'unclassified' ) ;
#106 = ORIENTED_EDGE ( 'NONE', *, *, #184, .T. ) ;
#107 = CIRCLE ( 'NONE', #95, 1.200000000000000178 ) ;
#108 = CARTESIAN_POINT ( 'NONE',  ( 0.000000000000000000, 0.000000000000000000, 2.199999999999979750 ) ) ;
#109 = EDGE_CURVE ( 'NONE', #8, #36, #301, .T. ) ;
#110 = LOCAL_TIME ( 12, 35, 4.000000000000000000, #22 ) ;
#111 = COORDINATED_UNIVERSAL_TIME_OFFSET ( 1, 0, .AHEAD. ) ;
#112 = LINE ( 'NONE', #88, #224 ) ;
#113 = PERSON_AND_ORGANIZATION_ROLE ( 'creator' ) ;
#114 = ORIENTED_EDGE ( 'NONE', *, *, #41, .T. ) ;
#115 = DIRECTION ( 'NONE',  ( -0.000000000000000000, -0.000000000000000000, -1.000000000000000000 ) ) ;
#116 = LOCAL_TIME ( 12, 35, 4.000000000000000000, #233 ) ;
#117 = DIRECTION ( 'NONE',  ( 0.000000000000000000, 0.000000000000000000, 1.000000000000000000 ) ) ;
#118 = CARTESIAN_POINT ( 'NONE',  ( -2.000000000000000000, 0.000000000000000000, 0.000000000000000000 ) ) ;
#119 = CARTESIAN_POINT ( 'NONE',  ( 1.000000000000000000, 1.224646799147353207E-16, 402.0000000000000000 ) ) ;
#120 = AXIS2_PLACEMENT_3D ( 'NONE', #59, #203, #165 ) ;
#121 = DIRECTION ( 'NONE',  ( 0.000000000000000000, 0.000000000000000000, 1.000000000000000000 ) ) ;
#122 = CARTESIAN_POINT ( 'NONE',  ( 1.000000000000000000, 1.224646799147353207E-16, 2.199999999999979750 ) ) ;
#123 =( NAMED_UNIT ( * ) PLANE_ANGLE_UNIT ( ) SI_UNIT ( $, .RADIAN. ) );
#124 = ORIENTED_EDGE ( 'NONE', *, *, #30, .F. ) ;
#125 = ORIENTED_EDGE ( 'NONE', *, *, #144, .F. ) ;
#126 = ORIENTED_EDGE ( 'NONE', *, *, #102, .T. ) ;
#127 = APPROVAL_ROLE ( '' ) ;
#128 = PERSON_AND_ORGANIZATION_ROLE ( 'classification_officer' ) ;
#129 = CARTESIAN_POINT ( 'NONE',  ( -2.000000000000000000, 0.000000000000000000, 2.000000000000000000 ) ) ;
#130 = PERSON_AND_ORGANIZATION ( #11, #282 ) ;
#131 = DIRECTION ( 'NONE',  ( -0.000000000000000000, -0.000000000000000000, -1.000000000000000000 ) ) ;
#132 = CC_DESIGN_PERSON_AND_ORGANIZATION_ASSIGNMENT ( #135, #14, ( #56 ) ) ;
#133 = APPROVAL_STATUS ( 'not_yet_approved' ) ;
#134 = ORIENTED_EDGE ( 'NONE', *, *, #102, .F. ) ;
#135 = PERSON_AND_ORGANIZATION ( #11, #282 ) ;
#136 = ORIENTED_EDGE ( 'NONE', *, *, #235, .T. ) ;
#137 = APPROVAL_ROLE ( '' ) ;
#138 = FACE_BOUND ( 'NONE', #201, .T. ) ;
#139 = FACE_OUTER_BOUND ( 'NONE', #194, .T. ) ;
#140 = CARTESIAN_POINT ( 'NONE',  ( 1.200000000000000178, 0.000000000000000000, 2.199999999999979750 ) ) ;
#141 = CARTESIAN_POINT ( 'NONE',  ( 0.000000000000000000, 0.000000000000000000, 2.000000000000000000 ) ) ;
#142 = AXIS2_PLACEMENT_3D ( 'NONE', #204, #3, #163 ) ;
#143 = CARTESIAN_POINT ( 'NONE',  ( 0.000000000000000000, 0.000000000000000000, 0.000000000000000000 ) ) ;
#144 = EDGE_CURVE ( 'NONE', #270, #216, #112, .T. ) ;
#145 = ORIENTED_EDGE ( 'NONE', *, *, #268, .T. ) ;
#146 = ORIENTED_EDGE ( 'NONE', *, *, #69, .F. ) ;
#147 = LOCAL_TIME ( 12, 35, 4.000000000000000000, #111 ) ;
#148 = EDGE_LOOP ( 'NONE', ( #104, #10, #13, #106 ) ) ;
#149 = FACE_OUTER_BOUND ( 'NONE', #37, .T. ) ;
#150 = EDGE_CURVE ( 'NONE', #274, #167, #107, .T. ) ;
#151 = APPROVAL ( #133, 'NEURÈENÝ' ) ;
#152 = DIRECTION ( 'NONE',  ( 1.000000000000000000, 0.000000000000000000, 0.000000000000000000 ) ) ;
#153 = CIRCLE ( 'NONE', #183, 2.000000000000000000 ) ;
#154 = DIRECTION ( 'NONE',  ( -0.000000000000000000, -0.000000000000000000, -1.000000000000000000 ) ) ;
#155 = CARTESIAN_POINT ( 'NONE',  ( -1.000000000000000000, 0.000000000000000000, 2.199999999999979750 ) ) ;
#156 = APPROVAL_STATUS ( 'not_yet_approved' ) ;
#157 = ORIENTED_EDGE ( 'NONE', *, *, #41, .F. ) ;
#158 = VECTOR ( 'NONE', #131, 1000.000000000000000 ) ;
#159 = LINE ( 'NONE', #292, #169 ) ;
#160 = ADVANCED_FACE ( 'NONE', ( #47 ), #230, .T. ) ;
#161 = AXIS2_PLACEMENT_3D ( 'NONE', #140, #99, #291 ) ;
#162 = DIRECTION ( 'NONE',  ( 0.000000000000000000, 0.000000000000000000, 1.000000000000000000 ) ) ;
#163 = DIRECTION ( 'NONE',  ( 1.000000000000000000, 0.000000000000000000, 0.000000000000000000 ) ) ;
#164 = DIRECTION ( 'NONE',  ( -0.000000000000000000, -0.000000000000000000, -1.000000000000000000 ) ) ;
#165 = DIRECTION ( 'NONE',  ( -1.000000000000000000, 0.000000000000000000, 0.000000000000000000 ) ) ;
#166 = AXIS2_PLACEMENT_3D ( 'NONE', #77, #162, #57 ) ;
#167 = VERTEX_POINT ( 'NONE', #27 ) ;
#168 = CLOSED_SHELL ( 'NONE', ( #294, #280, #160, #241, #76, #299, #34, #290, #205 ) ) ;
#169 = VECTOR ( 'NONE', #164, 1000.000000000000000 ) ;
#170 = EDGE_LOOP ( 'NONE', ( #157, #35, #124, #178 ) ) ;
#171 = ORIENTED_EDGE ( 'NONE', *, *, #268, .F. ) ;
#172 = DATE_AND_TIME ( #24, #116 ) ;
#173 = VERTEX_POINT ( 'NONE', #260 ) ;
#174 = DIRECTION ( 'NONE',  ( 1.000000000000000000, 0.000000000000000000, 0.000000000000000000 ) ) ;
#175 = PERSON_AND_ORGANIZATION ( #11, #282 ) ;
#176 = DIRECTION ( 'NONE',  ( 0.000000000000000000, 0.000000000000000000, 1.000000000000000000 ) ) ;
#177 = APPROVAL_DATE_TIME ( #229, #55 ) ;
#178 = ORIENTED_EDGE ( 'NONE', *, *, #202, .F. ) ;
#179 = APPROVAL_PERSON_ORGANIZATION ( #50, #214, #137 ) ;
#180 = VERTEX_POINT ( 'NONE', #98 ) ;
#181 = CARTESIAN_POINT ( 'NONE',  ( 0.000000000000000000, 0.000000000000000000, 402.0000000000000000 ) ) ;
#182 = PLANE ( 'NONE',  #166 ) ;
#183 = AXIS2_PLACEMENT_3D ( 'NONE', #262, #121, #263 ) ;
#184 = EDGE_CURVE ( 'NONE', #215, #173, #153, .T. ) ;
#185 = AXIS2_PLACEMENT_3D ( 'NONE', #181, #4, #286 ) ;
#186 = DIRECTION ( 'NONE',  ( 0.000000000000000000, 0.000000000000000000, 1.000000000000000000 ) ) ;
#187 = EDGE_CURVE ( 'NONE', #36, #274, #61, .T. ) ;
#188 = ORIENTED_EDGE ( 'NONE', *, *, #202, .T. ) ;
#189 = CC_DESIGN_DATE_AND_TIME_ASSIGNMENT ( #279, #256, ( #62 ) ) ;
#190 = AXIS2_PLACEMENT_3D ( 'NONE', #143, #267, #28 ) ;
#191 = ORIENTED_EDGE ( 'NONE', *, *, #187, .F. ) ;
#192 = APPLICATION_PROTOCOL_DEFINITION ( 'international standard', 'config_control_design', 1994, #49 ) ;
#193 = DIRECTION ( 'NONE',  ( 1.000000000000000000, 0.000000000000000000, 0.000000000000000000 ) ) ;
#194 = EDGE_LOOP ( 'NONE', ( #45, #145 ) ) ;
#195 = APPROVAL_PERSON_ORGANIZATION ( #20, #151, #127 ) ;
#196 = CALENDAR_DATE ( 2022, 7, 7 ) ;
#197 = ORIENTED_EDGE ( 'NONE', *, *, #259, .T. ) ;
#198 = DIRECTION ( 'NONE',  ( 0.000000000000000000, 0.000000000000000000, 1.000000000000000000 ) ) ;
#199 = DIRECTION ( 'NONE',  ( -0.000000000000000000, -0.000000000000000000, -1.000000000000000000 ) ) ;
#200 = COORDINATED_UNIVERSAL_TIME_OFFSET ( 1, 0, .AHEAD. ) ;
#201 = EDGE_LOOP ( 'NONE', ( #306, #60 ) ) ;
#202 = EDGE_CURVE ( 'NONE', #216, #167, #29, .T. ) ;
#203 = DIRECTION ( 'NONE',  ( -0.000000000000000000, -0.000000000000000000, -1.000000000000000000 ) ) ;
#204 = CARTESIAN_POINT ( 'NONE',  ( 0.000000000000000000, 0.000000000000000000, 2.199999999999979750 ) ) ;
#205 = ADVANCED_FACE ( 'NONE', ( #244 ), #33, .F. ) ;
#206 = CIRCLE ( 'NONE', #298, 1.000000000000000000 ) ;
#207 = DIRECTION ( 'NONE',  ( 1.000000000000000000, 0.000000000000000000, 0.000000000000000000 ) ) ;
#208 = CIRCLE ( 'NONE', #190, 2.000000000000000000 ) ;
#209 = DESIGN_CONTEXT ( 'detailed design', #49, 'design' ) ;
#210 = AXIS2_PLACEMENT_3D ( 'NONE', #100, #293, #82 ) ;
#211 = DIRECTION ( 'NONE',  ( -1.000000000000000000, 0.000000000000000000, 0.000000000000000000 ) ) ;
#212 = CARTESIAN_POINT ( 'NONE',  ( 0.000000000000000000, 0.000000000000000000, 2.000000000000000000 ) ) ;
#213 =( NAMED_UNIT ( * ) SI_UNIT ( $, .STERADIAN. ) SOLID_ANGLE_UNIT ( ) );
#214 = APPROVAL ( #156, 'NEURÈENÝ' ) ;
#215 = VERTEX_POINT ( 'NONE', #118 ) ;
#216 = VERTEX_POINT ( 'NONE', #122 ) ;
#217 = EDGE_LOOP ( 'NONE', ( #285, #273 ) ) ;
#218 = EDGE_CURVE ( 'NONE', #48, #180, #288, .T. ) ;
#219 = ORIENTED_EDGE ( 'NONE', *, *, #235, .F. ) ;
#220 = CC_DESIGN_PERSON_AND_ORGANIZATION_ASSIGNMENT ( #130, #46, ( #305 ) ) ;
#221 = PERSON_AND_ORGANIZATION ( #11, #282 ) ;
#222 = PRODUCT_RELATED_PRODUCT_CATEGORY ( 'detail', '', ( #56 ) ) ;
#223 = CARTESIAN_POINT ( 'NONE',  ( 0.000000000000000000, 0.000000000000000000, 402.0000000000000000 ) ) ;
#224 = VECTOR ( 'NONE', #115, 1000.000000000000000 ) ;
#225 = CALENDAR_DATE ( 2022, 7, 7 ) ;
#226 = DIRECTION ( 'NONE',  ( -0.000000000000000000, -0.000000000000000000, -1.000000000000000000 ) ) ;
#227 = CIRCLE ( 'NONE', #97, 2.000000000000000000 ) ;
#228 = AXIS2_PLACEMENT_3D ( 'NONE', #284, #198, #43 ) ;
#229 = DATE_AND_TIME ( #12, #147 ) ;
#230 = CYLINDRICAL_SURFACE ( 'NONE', #278, 2.000000000000000000 ) ;
#231 = CALENDAR_DATE ( 2022, 7, 7 ) ;
#232 = CARTESIAN_POINT ( 'NONE',  ( -1.000000000000000000, 0.000000000000000000, 402.0000000000000000 ) ) ;
#233 = COORDINATED_UNIVERSAL_TIME_OFFSET ( 1, 0, .AHEAD. ) ;
#234 = CARTESIAN_POINT ( 'NONE',  ( 0.000000000000000000, 0.000000000000000000, 2.000000000000000000 ) ) ;
#235 = EDGE_CURVE ( 'NONE', #180, #48, #227, .T. ) ;
#236 = FACE_OUTER_BOUND ( 'NONE', #170, .T. ) ;
#237 = APPLICATION_CONTEXT ( 'configuration controlled 3d designs of mechanical parts and assemblies' ) ;
#238 = DIRECTION ( 'NONE',  ( 0.000000000000000000, 0.000000000000000000, 1.000000000000000000 ) ) ;
#239 = AXIS2_PLACEMENT_3D ( 'NONE', #250, #42, #15 ) ;
#240 = DIRECTION ( 'NONE',  ( 1.000000000000000000, 0.000000000000000000, 0.000000000000000000 ) ) ;
#241 = ADVANCED_FACE ( 'NONE', ( #7 ), #58, .T. ) ;
#242 = AXIS2_PLACEMENT_3D ( 'NONE', #1, #238, #240 ) ;
#243 = CARTESIAN_POINT ( 'NONE',  ( -1.200000000000000178, 1.469576158976823799E-16, 1.999999999999989564 ) ) ;
#244 = FACE_OUTER_BOUND ( 'NONE', #271, .T. ) ;
#245 = VECTOR ( 'NONE', #226, 1000.000000000000000 ) ;
#246 = EDGE_CURVE ( 'NONE', #180, #173, #159, .T. ) ;
#247 = ORIENTED_EDGE ( 'NONE', *, *, #218, .T. ) ;
#248 = EDGE_LOOP ( 'NONE', ( #247, #136 ) ) ;
#249 = PERSON_AND_ORGANIZATION ( #11, #282 ) ;
#250 = CARTESIAN_POINT ( 'NONE',  ( 0.000000000000000000, 0.000000000000000000, 2.000000000000000000 ) ) ;
#251 = DIRECTION ( 'NONE',  ( -1.000000000000000000, 0.000000000000000000, 0.000000000000000000 ) ) ;
#252 = CIRCLE ( 'NONE', #277, 1.000000000000000000 ) ;
#253 = DIRECTION ( 'NONE',  ( 1.000000000000000000, 0.000000000000000000, 0.000000000000000000 ) ) ;
#254 = LOCAL_TIME ( 12, 35, 4.000000000000000000, #200 ) ;
#255 = DIRECTION ( 'NONE',  ( -0.000000000000000000, -0.000000000000000000, -1.000000000000000000 ) ) ;
#256 = DATE_TIME_ROLE ( 'classification_date' ) ;
#257 = CYLINDRICAL_SURFACE ( 'NONE', #16, 1.000000000000000000 ) ;
#258 = AXIS2_PLACEMENT_3D ( 'NONE', #234, #90, #193 ) ;
#259 = EDGE_CURVE ( 'NONE', #173, #215, #208, .T. ) ;
#260 = CARTESIAN_POINT ( 'NONE',  ( 2.000000000000000000, 2.449293598294706414E-16, 0.000000000000000000 ) ) ;
#261 =( GEOMETRIC_REPRESENTATION_CONTEXT ( 3 ) GLOBAL_UNCERTAINTY_ASSIGNED_CONTEXT ( ( #81 ) ) GLOBAL_UNIT_ASSIGNED_CONTEXT ( ( #84, #123, #213 ) ) REPRESENTATION_CONTEXT ( 'NONE', 'WORKASPACE' ) );
#262 = CARTESIAN_POINT ( 'NONE',  ( 0.000000000000000000, 0.000000000000000000, 0.000000000000000000 ) ) ;
#263 = DIRECTION ( 'NONE',  ( 1.000000000000000000, 0.000000000000000000, 0.000000000000000000 ) ) ;
#264 = DIRECTION ( 'NONE',  ( 1.224646799147353207E-16, 1.000000000000000000, -0.000000000000000000 ) ) ;
#265 = AXIS2_PLACEMENT_3D ( 'NONE', #75, #117, #6 ) ;
#266 = PRODUCT_DEFINITION_SHAPE ( 'NONE', 'NONE',  #305 ) ;
#267 = DIRECTION ( 'NONE',  ( 0.000000000000000000, 0.000000000000000000, 1.000000000000000000 ) ) ;
#268 = EDGE_CURVE ( 'NONE', #270, #8, #71, .T. ) ;
#269 = APPLICATION_PROTOCOL_DEFINITION ( 'international standard', 'config_control_design', 1994, #237 ) ;
#270 = VERTEX_POINT ( 'NONE', #119 ) ;
#271 = EDGE_LOOP ( 'NONE', ( #191, #134, #188, #297 ) ) ;
#272 = APPROVAL_STATUS ( 'not_yet_approved' ) ;
#273 = ORIENTED_EDGE ( 'NONE', *, *, #259, .F. ) ;
#274 = VERTEX_POINT ( 'NONE', #243 ) ;
#275 = PERSON_AND_ORGANIZATION_ROLE ( 'design_supplier' ) ;
#276 = CARTESIAN_POINT ( 'NONE',  ( 0.000000000000000000, 0.000000000000000000, 2.000000000000000000 ) ) ;
#277 = AXIS2_PLACEMENT_3D ( 'NONE', #108, #68, #152 ) ;
#278 = AXIS2_PLACEMENT_3D ( 'NONE', #21, #199, #211 ) ;
#279 = DATE_AND_TIME ( #196, #254 ) ;
#280 = ADVANCED_FACE ( 'NONE', ( #31 ), #287, .T. ) ;
#281 = CARTESIAN_POINT ( 'NONE',  ( 0.000000000000000000, 0.000000000000000000, 2.199999999999979750 ) ) ;
#282 = ORGANIZATION ( 'NEURÈENÝ', 'NEURÈENÝ', '' ) ;
#283 = MANIFOLD_SOLID_BREP ( 'Zaoblit1', #168 ) ;
#284 = CARTESIAN_POINT ( 'NONE',  ( 0.000000000000000000, 0.000000000000000000, 0.000000000000000000 ) ) ;
#285 = ORIENTED_EDGE ( 'NONE', *, *, #184, .F. ) ;
#286 = DIRECTION ( 'NONE',  ( 1.000000000000000000, 0.000000000000000000, -0.000000000000000000 ) ) ;
#287 = CYLINDRICAL_SURFACE ( 'NONE', #210, 1.000000000000000000 ) ;
#288 = CIRCLE ( 'NONE', #307, 2.000000000000000000 ) ;
#289 = CC_DESIGN_SECURITY_CLASSIFICATION ( #62, ( #78 ) ) ;
#290 = ADVANCED_FACE ( 'NONE', ( #139 ), #93, .T. ) ;
#291 = DIRECTION ( 'NONE',  ( 0.000000000000000000, 0.000000000000000000, -1.000000000000000000 ) ) ;
#292 = CARTESIAN_POINT ( 'NONE',  ( 2.000000000000000000, 2.449293598294706414E-16, 2.000000000000000000 ) ) ;
#293 = DIRECTION ( 'NONE',  ( -0.000000000000000000, -0.000000000000000000, -1.000000000000000000 ) ) ;
#294 = ADVANCED_FACE ( 'NONE', ( #236 ), #91, .F. ) ;
#295 = CIRCLE ( 'NONE', #32, 1.000000000000000000 ) ;
#296 = COORDINATED_UNIVERSAL_TIME_OFFSET ( 1, 0, .AHEAD. ) ;
#297 = ORIENTED_EDGE ( 'NONE', *, *, #150, .F. ) ;
#298 = AXIS2_PLACEMENT_3D ( 'NONE', #281, #176, #18 ) ;
#299 = ADVANCED_FACE ( 'NONE', ( #94 ), #182, .F. ) ;
#300 = EDGE_LOOP ( 'NONE', ( #219, #23, #197, #146 ) ) ;
#301 = LINE ( 'NONE', #232, #245 ) ;
#302 = APPROVAL_ROLE ( '' ) ;
#303 = CARTESIAN_POINT ( 'NONE',  ( 0.000000000000000000, 0.000000000000000000, 402.0000000000000000 ) ) ;
#304 = DATE_AND_TIME ( #225, #110 ) ;
#305 = PRODUCT_DEFINITION ( 'NEZNÁMÝ', '', #78, #209 ) ;
#306 = ORIENTED_EDGE ( 'NONE', *, *, #30, .T. ) ;
#307 = AXIS2_PLACEMENT_3D ( 'NONE', #141, #186, #207 ) ;
ENDSEC;
END-ISO-10303-21;
