ISO-10303-21;
HEADER;
FILE_DESCRIPTION (( 'STEP AP203' ),
    '1' );
FILE_NAME ('d1c0.STEP',
    '2023-02-12T11:35:36',
    ( '' ),
    ( '' ),
    'SwSTEP 2.0',
    'SolidWorks 2019',
    '' );
FILE_SCHEMA (( 'CONFIG_CONTROL_DESIGN' ));
ENDSEC;

DATA;
#1 = EDGE_CURVE ( 'NONE', #255, #5, #33, .T. ) ;
#2 = VERTEX_POINT ( 'NONE', #125 ) ;
#3 = PRODUCT_DEFINITION ( 'NEZNÁMÝ', '', #127, #85 ) ;
#4 = APPROVAL_ROLE ( '' ) ;
#5 = VERTEX_POINT ( 'NONE', #47 ) ;
#6 = LINE ( 'NONE', #189, #185 ) ;
#7 = UNCERTAINTY_MEASURE_WITH_UNIT (LENGTH_MEASURE( 1.000000000000000082E-05 ), #253, 'distance_accuracy_value', 'NONE');
#8 = DIRECTION ( 'NONE',  ( 0.000000000000000000, 0.000000000000000000, 1.000000000000000000 ) ) ;
#9 = PERSON ( 'NEURÈENÝ', 'NEURÈENÝ', 'NEURÈENÝ', ('NEURÈENÝ'), ('NEURÈENÝ'), ('NEURÈENÝ') ) ;
#10 = AXIS2_PLACEMENT_3D ( 'NONE', #39, #133, #145 ) ;
#11 = DIRECTION ( 'NONE',  ( -0.000000000000000000, -0.000000000000000000, -1.000000000000000000 ) ) ;
#12 = ADVANCED_FACE ( 'NONE', ( #92 ), #68, .F. ) ;
#13 = LOCAL_TIME ( 12, 35, 36.00000000000000000, #195 ) ;
#14 = CARTESIAN_POINT ( 'NONE',  ( 0.000000000000000000, 0.000000000000000000, 250.0000000000000000 ) ) ;
#15 = EDGE_LOOP ( 'NONE', ( #242, #45 ) ) ;
#16 = AXIS2_PLACEMENT_3D ( 'NONE', #183, #11, #188 ) ;
#17 = APPROVAL_ROLE ( '' ) ;
#18 = APPROVAL_PERSON_ORGANIZATION ( #54, #73, #28 ) ;
#19 = ADVANCED_FACE ( 'NONE', ( #69 ), #130, .T. ) ;
#20 = DIRECTION ( 'NONE',  ( 1.000000000000000000, 0.000000000000000000, 0.000000000000000000 ) ) ;
#21 = DIRECTION ( 'NONE',  ( 1.000000000000000000, 0.000000000000000000, -0.000000000000000000 ) ) ;
#22 = CIRCLE ( 'NONE', #163, 4.500000000000000888 ) ;
#23 = ADVANCED_FACE ( 'NONE', ( #114 ), #167, .T. ) ;
#24 = ORIENTED_EDGE ( 'NONE', *, *, #70, .F. ) ;
#25 = DIRECTION ( 'NONE',  ( 0.000000000000000000, 0.000000000000000000, 1.000000000000000000 ) ) ;
#26 = ORIENTED_EDGE ( 'NONE', *, *, #29, .T. ) ;
#27 = DATE_AND_TIME ( #30, #155 ) ;
#28 = APPROVAL_ROLE ( '' ) ;
#29 = EDGE_CURVE ( 'NONE', #2, #157, #6, .T. ) ;
#30 = CALENDAR_DATE ( 2023, 12, 2 ) ;
#31 = PRODUCT ( 'd1c0', 'd1c0', '', ( #57 ) ) ;
#32 = ADVANCED_FACE ( 'NONE', ( #229 ), #46, .T. ) ;
#33 = LINE ( 'NONE', #212, #65 ) ;
#34 = DIRECTION ( 'NONE',  ( -0.000000000000000000, -0.000000000000000000, -1.000000000000000000 ) ) ;
#35 = ORIENTED_EDGE ( 'NONE', *, *, #215, .F. ) ;
#36 = PRODUCT_DEFINITION_SHAPE ( 'NONE', 'NONE',  #3 ) ;
#37 = DIRECTION ( 'NONE',  ( 1.000000000000000000, 0.000000000000000000, 0.000000000000000000 ) ) ;
#38 = VECTOR ( 'NONE', #115, 1000.000000000000000 ) ;
#39 = CARTESIAN_POINT ( 'NONE',  ( 0.000000000000000000, 0.000000000000000000, 5.000000000000000000 ) ) ;
#40 = FACE_BOUND ( 'NONE', #61, .T. ) ;
#41 = CARTESIAN_POINT ( 'NONE',  ( 7.000000000000000000, 8.572527594031473190E-16, 0.000000000000000000 ) ) ;
#42 = CC_DESIGN_SECURITY_CLASSIFICATION ( #83, ( #127 ) ) ;
#43 = LINE ( 'NONE', #100, #38 ) ;
#44 = ORIENTED_EDGE ( 'NONE', *, *, #202, .F. ) ;
#45 = ORIENTED_EDGE ( 'NONE', *, *, #105, .F. ) ;
#46 = PLANE ( 'NONE',  #210 ) ;
#47 = CARTESIAN_POINT ( 'NONE',  ( -4.500000000000000888, 0.000000000000000000, 5.000000000000000000 ) ) ;
#48 = CC_DESIGN_APPROVAL ( #168, ( #83 ) ) ;
#49 = CC_DESIGN_PERSON_AND_ORGANIZATION_ASSIGNMENT ( #63, #161, ( #83 ) ) ;
#50 = CARTESIAN_POINT ( 'NONE',  ( 4.500000000000000888, 5.510910596163089556E-16, 5.000000000000000000 ) ) ;
#51 = DIRECTION ( 'NONE',  ( 0.000000000000000000, 0.000000000000000000, 1.000000000000000000 ) ) ;
#52 = ORIENTED_EDGE ( 'NONE', *, *, #82, .F. ) ;
#53 = CIRCLE ( 'NONE', #173, 7.000000000000000000 ) ;
#54 = PERSON_AND_ORGANIZATION ( #9, #192 ) ;
#55 = DIRECTION ( 'NONE',  ( 0.000000000000000000, 0.000000000000000000, 1.000000000000000000 ) ) ;
#56 = AXIS2_PLACEMENT_3D ( 'NONE', #153, #25, #20 ) ;
#57 = MECHANICAL_CONTEXT ( 'NONE', #235, 'mechanical' ) ;
#58 = EDGE_LOOP ( 'NONE', ( #103, #240 ) ) ;
#59 = PERSON_AND_ORGANIZATION ( #9, #192 ) ;
#60 = ORIENTED_EDGE ( 'NONE', *, *, #86, .T. ) ;
#61 = EDGE_LOOP ( 'NONE', ( #52, #24 ) ) ;
#62 = CC_DESIGN_DATE_AND_TIME_ASSIGNMENT ( #106, #122, ( #83 ) ) ;
#63 = PERSON_AND_ORGANIZATION ( #9, #192 ) ;
#64 = PERSON_AND_ORGANIZATION ( #9, #192 ) ;
#65 = VECTOR ( 'NONE', #34, 1000.000000000000000 ) ;
#66 = CC_DESIGN_DATE_AND_TIME_ASSIGNMENT ( #74, #152, ( #3 ) ) ;
#67 = ORIENTED_EDGE ( 'NONE', *, *, #182, .T. ) ;
#68 = PLANE ( 'NONE',  #223 ) ;
#69 = FACE_OUTER_BOUND ( 'NONE', #179, .T. ) ;
#70 = EDGE_CURVE ( 'NONE', #118, #5, #77, .T. ) ;
#71 = DIRECTION ( 'NONE',  ( 1.000000000000000000, 0.000000000000000000, 0.000000000000000000 ) ) ;
#72 = CARTESIAN_POINT ( 'NONE',  ( 0.000000000000000000, 0.000000000000000000, 250.0000000000000000 ) ) ;
#73 = APPROVAL ( #134, 'NEURÈENÝ' ) ;
#74 = DATE_AND_TIME ( #196, #13 ) ;
#75 = AXIS2_PLACEMENT_3D ( 'NONE', #209, #110, #94 ) ;
#76 = FACE_OUTER_BOUND ( 'NONE', #58, .T. ) ;
#77 = CIRCLE ( 'NONE', #246, 4.500000000000000888 ) ;
#78 = APPROVAL_STATUS ( 'not_yet_approved' ) ;
#79 = ORIENTED_EDGE ( 'NONE', *, *, #202, .T. ) ;
#80 = CARTESIAN_POINT ( 'NONE',  ( -4.500000000000000888, 0.000000000000000000, 250.0000000000000000 ) ) ;
#81 = ORIENTED_EDGE ( 'NONE', *, *, #164, .F. ) ;
#82 = EDGE_CURVE ( 'NONE', #5, #118, #22, .T. ) ;
#83 = SECURITY_CLASSIFICATION ( '', '', #201 ) ;
#84 = PERSON_AND_ORGANIZATION ( #9, #192 ) ;
#85 = DESIGN_CONTEXT ( 'detailed design', #120, 'design' ) ;
#86 = EDGE_CURVE ( 'NONE', #255, #197, #151, .T. ) ;
#87 = APPROVAL_DATE_TIME ( #27, #73 ) ;
#88 = AXIS2_PLACEMENT_3D ( 'NONE', #72, #95, #171 ) ;
#89 = AXIS2_PLACEMENT_3D ( 'NONE', #233, #177, #174 ) ;
#90 = DIRECTION ( 'NONE',  ( 0.000000000000000000, 0.000000000000000000, 1.000000000000000000 ) ) ;
#91 = ADVANCED_FACE ( 'NONE', ( #170 ), #252, .T. ) ;
#92 = FACE_OUTER_BOUND ( 'NONE', #15, .T. ) ;
#93 = APPROVAL_PERSON_ORGANIZATION ( #64, #168, #4 ) ;
#94 = DIRECTION ( 'NONE',  ( 1.000000000000000000, 0.000000000000000000, 0.000000000000000000 ) ) ;
#95 = DIRECTION ( 'NONE',  ( 0.000000000000000000, 0.000000000000000000, 1.000000000000000000 ) ) ;
#96 = CC_DESIGN_PERSON_AND_ORGANIZATION_ASSIGNMENT ( #213, #139, ( #31 ) ) ;
#97 = CARTESIAN_POINT ( 'NONE',  ( 0.000000000000000000, 0.000000000000000000, 5.000000000000000000 ) ) ;
#98 = DIRECTION ( 'NONE',  ( 0.000000000000000000, 0.000000000000000000, 1.000000000000000000 ) ) ;
#99 = CC_DESIGN_PERSON_AND_ORGANIZATION_ASSIGNMENT ( #84, #243, ( #127 ) ) ;
#100 = CARTESIAN_POINT ( 'NONE',  ( 4.500000000000000888, 5.510910596163089556E-16, 250.0000000000000000 ) ) ;
#101 = ORIENTED_EDGE ( 'NONE', *, *, #215, .T. ) ;
#102 = APPROVAL_DATE_TIME ( #218, #172 ) ;
#103 = ORIENTED_EDGE ( 'NONE', *, *, #164, .T. ) ;
#104 = COORDINATED_UNIVERSAL_TIME_OFFSET ( 1, 0, .AHEAD. ) ;
#105 = EDGE_CURVE ( 'NONE', #217, #157, #107, .T. ) ;
#106 = DATE_AND_TIME ( #142, #146 ) ;
#107 = CIRCLE ( 'NONE', #158, 7.000000000000000000 ) ;
#108 = CARTESIAN_POINT ( 'NONE',  ( 7.000000000000000000, 8.572527594031473190E-16, 5.000000000000000000 ) ) ;
#109 = CARTESIAN_POINT ( 'NONE',  ( 0.000000000000000000, 0.000000000000000000, 0.000000000000000000 ) ) ;
#110 = DIRECTION ( 'NONE',  ( 0.000000000000000000, 0.000000000000000000, 1.000000000000000000 ) ) ;
#111 = MANIFOLD_SOLID_BREP ( 'Pøidat vysunutím3', #159 ) ;
#112 = CC_DESIGN_APPROVAL ( #73, ( #127 ) ) ;
#113 = DIRECTION ( 'NONE',  ( 1.000000000000000000, 0.000000000000000000, 0.000000000000000000 ) ) ;
#114 = FACE_OUTER_BOUND ( 'NONE', #238, .T. ) ;
#115 = DIRECTION ( 'NONE',  ( -0.000000000000000000, -0.000000000000000000, -1.000000000000000000 ) ) ;
#116 = CC_DESIGN_APPROVAL ( #172, ( #3 ) ) ;
#117 = APPLICATION_PROTOCOL_DEFINITION ( 'international standard', 'config_control_design', 1994, #120 ) ;
#118 = VERTEX_POINT ( 'NONE', #50 ) ;
#119 = PERSON_AND_ORGANIZATION_ROLE ( 'creator' ) ;
#120 = APPLICATION_CONTEXT ( 'configuration controlled 3d designs of mechanical parts and assemblies' ) ;
#121 = EDGE_LOOP ( 'NONE', ( #60, #79 ) ) ;
#122 = DATE_TIME_ROLE ( 'classification_date' ) ;
#123 = VERTEX_POINT ( 'NONE', #184 ) ;
#124 = ORIENTED_EDGE ( 'NONE', *, *, #105, .T. ) ;
#125 = CARTESIAN_POINT ( 'NONE',  ( -7.000000000000000000, 0.000000000000000000, 5.000000000000000000 ) ) ;
#126 = PRODUCT_RELATED_PRODUCT_CATEGORY ( 'detail', '', ( #31 ) ) ;
#127 = PRODUCT_DEFINITION_FORMATION_WITH_SPECIFIED_SOURCE ( 'LIBOVOLNÝ', '', #31, .NOT_KNOWN. ) ;
#128 = CARTESIAN_POINT ( 'NONE',  ( 0.000000000000000000, 0.000000000000000000, 0.000000000000000000 ) ) ;
#129 = EDGE_LOOP ( 'NONE', ( #44, #101, #156, #204 ) ) ;
#130 = CYLINDRICAL_SURFACE ( 'NONE', #10, 7.000000000000000000 ) ;
#131 = CIRCLE ( 'NONE', #75, 7.000000000000000000 ) ;
#132 = CIRCLE ( 'NONE', #56, 4.500000000000000888 ) ;
#133 = DIRECTION ( 'NONE',  ( -0.000000000000000000, -0.000000000000000000, -1.000000000000000000 ) ) ;
#134 = APPROVAL_STATUS ( 'not_yet_approved' ) ;
#135 = DIRECTION ( 'NONE',  ( 1.000000000000000000, 0.000000000000000000, 0.000000000000000000 ) ) ;
#136 = COORDINATED_UNIVERSAL_TIME_OFFSET ( 1, 0, .AHEAD. ) ;
#137 = ORIENTED_EDGE ( 'NONE', *, *, #29, .F. ) ;
#138 = EDGE_CURVE ( 'NONE', #123, #2, #131, .T. ) ;
#139 = PERSON_AND_ORGANIZATION_ROLE ( 'design_owner' ) ;
#140 = VECTOR ( 'NONE', #251, 1000.000000000000000 ) ;
#141 = APPROVAL_DATE_TIME ( #224, #168 ) ;
#142 = CALENDAR_DATE ( 2023, 12, 2 ) ;
#143 = ORIENTED_EDGE ( 'NONE', *, *, #148, .F. ) ;
#144 = DIRECTION ( 'NONE',  ( -0.000000000000000000, -0.000000000000000000, -1.000000000000000000 ) ) ;
#145 = DIRECTION ( 'NONE',  ( -1.000000000000000000, 0.000000000000000000, 0.000000000000000000 ) ) ;
#146 = LOCAL_TIME ( 12, 35, 36.00000000000000000, #162 ) ;
#147 = DIRECTION ( 'NONE',  ( 1.000000000000000000, 0.000000000000000000, -0.000000000000000000 ) ) ;
#148 = EDGE_CURVE ( 'NONE', #123, #217, #205, .T. ) ;
#149 = CARTESIAN_POINT ( 'NONE',  ( 0.000000000000000000, 0.000000000000000000, 0.000000000000000000 ) ) ;
#150 = CARTESIAN_POINT ( 'NONE',  ( 0.000000000000000000, 0.000000000000000000, 250.0000000000000000 ) ) ;
#151 = CIRCLE ( 'NONE', #88, 4.500000000000000888 ) ;
#152 = DATE_TIME_ROLE ( 'creation_date' ) ;
#153 = CARTESIAN_POINT ( 'NONE',  ( 0.000000000000000000, 0.000000000000000000, 250.0000000000000000 ) ) ;
#154 = CYLINDRICAL_SURFACE ( 'NONE', #89, 4.500000000000000888 ) ;
#155 = LOCAL_TIME ( 12, 35, 36.00000000000000000, #226 ) ;
#156 = ORIENTED_EDGE ( 'NONE', *, *, #70, .T. ) ;
#157 = VERTEX_POINT ( 'NONE', #166 ) ;
#158 = AXIS2_PLACEMENT_3D ( 'NONE', #109, #90, #71 ) ;
#159 = CLOSED_SHELL ( 'NONE', ( #221, #19, #23, #241, #12, #91, #32 ) ) ;
#160 =( GEOMETRIC_REPRESENTATION_CONTEXT ( 3 ) GLOBAL_UNCERTAINTY_ASSIGNED_CONTEXT ( ( #7 ) ) GLOBAL_UNIT_ASSIGNED_CONTEXT ( ( #253, #254, #193 ) ) REPRESENTATION_CONTEXT ( 'NONE', 'WORKASPACE' ) );
#161 = PERSON_AND_ORGANIZATION_ROLE ( 'classification_officer' ) ;
#162 = COORDINATED_UNIVERSAL_TIME_OFFSET ( 1, 0, .AHEAD. ) ;
#163 = AXIS2_PLACEMENT_3D ( 'NONE', #228, #207, #113 ) ;
#164 = EDGE_CURVE ( 'NONE', #2, #123, #53, .T. ) ;
#165 = ORIENTED_EDGE ( 'NONE', *, *, #148, .T. ) ;
#166 = CARTESIAN_POINT ( 'NONE',  ( -7.000000000000000000, 0.000000000000000000, 0.000000000000000000 ) ) ;
#167 = CYLINDRICAL_SURFACE ( 'NONE', #16, 7.000000000000000000 ) ;
#168 = APPROVAL ( #181, 'NEURÈENÝ' ) ;
#169 = DIRECTION ( 'NONE',  ( 1.000000000000000000, 0.000000000000000000, 0.000000000000000000 ) ) ;
#170 = FACE_OUTER_BOUND ( 'NONE', #176, .T. ) ;
#171 = DIRECTION ( 'NONE',  ( 1.000000000000000000, 0.000000000000000000, 0.000000000000000000 ) ) ;
#172 = APPROVAL ( #78, 'NEURÈENÝ' ) ;
#173 = AXIS2_PLACEMENT_3D ( 'NONE', #186, #8, #169 ) ;
#174 = DIRECTION ( 'NONE',  ( -1.000000000000000000, 0.000000000000000000, 0.000000000000000000 ) ) ;
#175 = APPLICATION_PROTOCOL_DEFINITION ( 'international standard', 'config_control_design', 1994, #235 ) ;
#176 = EDGE_LOOP ( 'NONE', ( #35, #249, #178, #247 ) ) ;
#177 = DIRECTION ( 'NONE',  ( -0.000000000000000000, -0.000000000000000000, -1.000000000000000000 ) ) ;
#178 = ORIENTED_EDGE ( 'NONE', *, *, #1, .T. ) ;
#179 = EDGE_LOOP ( 'NONE', ( #248, #165, #124, #137 ) ) ;
#180 = LOCAL_TIME ( 12, 35, 36.00000000000000000, #104 ) ;
#181 = APPROVAL_STATUS ( 'not_yet_approved' ) ;
#182 = EDGE_CURVE ( 'NONE', #157, #217, #206, .T. ) ;
#183 = CARTESIAN_POINT ( 'NONE',  ( 0.000000000000000000, 0.000000000000000000, 5.000000000000000000 ) ) ;
#184 = CARTESIAN_POINT ( 'NONE',  ( 7.000000000000000000, 8.572527594031473190E-16, 5.000000000000000000 ) ) ;
#185 = VECTOR ( 'NONE', #250, 1000.000000000000000 ) ;
#186 = CARTESIAN_POINT ( 'NONE',  ( 0.000000000000000000, 0.000000000000000000, 5.000000000000000000 ) ) ;
#187 = AXIS2_PLACEMENT_3D ( 'NONE', #234, #216, #21 ) ;
#188 = DIRECTION ( 'NONE',  ( -1.000000000000000000, 0.000000000000000000, 0.000000000000000000 ) ) ;
#189 = CARTESIAN_POINT ( 'NONE',  ( -7.000000000000000000, 0.000000000000000000, 5.000000000000000000 ) ) ;
#190 = CC_DESIGN_PERSON_AND_ORGANIZATION_ASSIGNMENT ( #198, #203, ( #127 ) ) ;
#191 = PLANE ( 'NONE',  #187 ) ;
#192 = ORGANIZATION ( 'NEURÈENÝ', 'NEURÈENÝ', '' ) ;
#193 =( NAMED_UNIT ( * ) SI_UNIT ( $, .STERADIAN. ) SOLID_ANGLE_UNIT ( ) );
#194 = CALENDAR_DATE ( 2023, 12, 2 ) ;
#195 = COORDINATED_UNIVERSAL_TIME_OFFSET ( 1, 0, .AHEAD. ) ;
#196 = CALENDAR_DATE ( 2023, 12, 2 ) ;
#197 = VERTEX_POINT ( 'NONE', #232 ) ;
#198 = PERSON_AND_ORGANIZATION ( #9, #192 ) ;
#199 = ADVANCED_BREP_SHAPE_REPRESENTATION ( 'd1c0', ( #111, #200 ), #160 ) ;
#200 = AXIS2_PLACEMENT_3D ( 'NONE', #239, #55, #135 ) ;
#201 = SECURITY_CLASSIFICATION_LEVEL ( 'unclassified' ) ;
#202 = EDGE_CURVE ( 'NONE', #197, #255, #132, .T. ) ;
#203 = PERSON_AND_ORGANIZATION_ROLE ( 'design_supplier' ) ;
#204 = ORIENTED_EDGE ( 'NONE', *, *, #1, .F. ) ;
#205 = LINE ( 'NONE', #108, #140 ) ;
#206 = CIRCLE ( 'NONE', #236, 7.000000000000000000 ) ;
#207 = DIRECTION ( 'NONE',  ( 0.000000000000000000, 0.000000000000000000, 1.000000000000000000 ) ) ;
#208 = CC_DESIGN_PERSON_AND_ORGANIZATION_ASSIGNMENT ( #219, #119, ( #3 ) ) ;
#209 = CARTESIAN_POINT ( 'NONE',  ( 0.000000000000000000, 0.000000000000000000, 5.000000000000000000 ) ) ;
#210 = AXIS2_PLACEMENT_3D ( 'NONE', #14, #211, #230 ) ;
#211 = DIRECTION ( 'NONE',  ( 0.000000000000000000, 0.000000000000000000, 1.000000000000000000 ) ) ;
#212 = CARTESIAN_POINT ( 'NONE',  ( -4.500000000000000888, 0.000000000000000000, 250.0000000000000000 ) ) ;
#213 = PERSON_AND_ORGANIZATION ( #9, #192 ) ;
#214 = DIRECTION ( 'NONE',  ( 1.000000000000000000, 0.000000000000000000, 0.000000000000000000 ) ) ;
#215 = EDGE_CURVE ( 'NONE', #197, #118, #43, .T. ) ;
#216 = DIRECTION ( 'NONE',  ( 0.000000000000000000, 0.000000000000000000, 1.000000000000000000 ) ) ;
#217 = VERTEX_POINT ( 'NONE', #41 ) ;
#218 = DATE_AND_TIME ( #194, #244 ) ;
#219 = PERSON_AND_ORGANIZATION ( #9, #192 ) ;
#220 = AXIS2_PLACEMENT_3D ( 'NONE', #150, #144, #227 ) ;
#221 = ADVANCED_FACE ( 'NONE', ( #237 ), #154, .T. ) ;
#222 = SHAPE_DEFINITION_REPRESENTATION ( #36, #199 ) ;
#223 = AXIS2_PLACEMENT_3D ( 'NONE', #128, #51, #147 ) ;
#224 = DATE_AND_TIME ( #245, #180 ) ;
#225 = APPROVAL_PERSON_ORGANIZATION ( #59, #172, #17 ) ;
#226 = COORDINATED_UNIVERSAL_TIME_OFFSET ( 1, 0, .AHEAD. ) ;
#227 = DIRECTION ( 'NONE',  ( -1.000000000000000000, 0.000000000000000000, 0.000000000000000000 ) ) ;
#228 = CARTESIAN_POINT ( 'NONE',  ( 0.000000000000000000, 0.000000000000000000, 5.000000000000000000 ) ) ;
#229 = FACE_OUTER_BOUND ( 'NONE', #121, .T. ) ;
#230 = DIRECTION ( 'NONE',  ( 1.000000000000000000, 0.000000000000000000, -0.000000000000000000 ) ) ;
#231 = DIRECTION ( 'NONE',  ( 0.000000000000000000, 0.000000000000000000, 1.000000000000000000 ) ) ;
#232 = CARTESIAN_POINT ( 'NONE',  ( 4.500000000000000888, 5.510910596163089556E-16, 250.0000000000000000 ) ) ;
#233 = CARTESIAN_POINT ( 'NONE',  ( 0.000000000000000000, 0.000000000000000000, 250.0000000000000000 ) ) ;
#234 = CARTESIAN_POINT ( 'NONE',  ( 0.000000000000000000, 0.000000000000000000, 5.000000000000000000 ) ) ;
#235 = APPLICATION_CONTEXT ( 'configuration controlled 3d designs of mechanical parts and assemblies' ) ;
#236 = AXIS2_PLACEMENT_3D ( 'NONE', #149, #98, #214 ) ;
#237 = FACE_OUTER_BOUND ( 'NONE', #129, .T. ) ;
#238 = EDGE_LOOP ( 'NONE', ( #143, #81, #26, #67 ) ) ;
#239 = CARTESIAN_POINT ( 'NONE',  ( 0.000000000000000000, 0.000000000000000000, 0.000000000000000000 ) ) ;
#240 = ORIENTED_EDGE ( 'NONE', *, *, #138, .T. ) ;
#241 = ADVANCED_FACE ( 'NONE', ( #40, #76 ), #191, .T. ) ;
#242 = ORIENTED_EDGE ( 'NONE', *, *, #182, .F. ) ;
#243 = PERSON_AND_ORGANIZATION_ROLE ( 'creator' ) ;
#244 = LOCAL_TIME ( 12, 35, 36.00000000000000000, #136 ) ;
#245 = CALENDAR_DATE ( 2023, 12, 2 ) ;
#246 = AXIS2_PLACEMENT_3D ( 'NONE', #97, #231, #37 ) ;
#247 = ORIENTED_EDGE ( 'NONE', *, *, #82, .T. ) ;
#248 = ORIENTED_EDGE ( 'NONE', *, *, #138, .F. ) ;
#249 = ORIENTED_EDGE ( 'NONE', *, *, #86, .F. ) ;
#250 = DIRECTION ( 'NONE',  ( -0.000000000000000000, -0.000000000000000000, -1.000000000000000000 ) ) ;
#251 = DIRECTION ( 'NONE',  ( -0.000000000000000000, -0.000000000000000000, -1.000000000000000000 ) ) ;
#252 = CYLINDRICAL_SURFACE ( 'NONE', #220, 4.500000000000000888 ) ;
#253 =( LENGTH_UNIT ( ) NAMED_UNIT ( * ) SI_UNIT ( .MILLI., .METRE. ) );
#254 =( NAMED_UNIT ( * ) PLANE_ANGLE_UNIT ( ) SI_UNIT ( $, .RADIAN. ) );
#255 = VERTEX_POINT ( 'NONE', #80 ) ;
ENDSEC;
END-ISO-10303-21;
