ISO-10303-21;
HEADER;
FILE_DESCRIPTION (( 'STEP AP203' ),
    '1' );
FILE_NAME ('0cca.STEP',
    '2022-07-07T10:16:43',
    ( '' ),
    ( '' ),
    'SwSTEP 2.0',
    'SolidWorks 2019',
    '' );
FILE_SCHEMA (( 'CONFIG_CONTROL_DESIGN' ));
ENDSEC;

DATA;
#1 = DIRECTION ( 'NONE',  ( -0.000000000000000000, -0.000000000000000000, -1.000000000000000000 ) ) ;
#2 = LINE ( 'NONE', #40, #35 ) ;
#3 = PRODUCT_DEFINITION ( 'NEZNÁMÝ', '', #281, #123 ) ;
#4 = ORIENTED_EDGE ( 'NONE', *, *, #162, .F. ) ;
#5 = CC_DESIGN_DATE_AND_TIME_ASSIGNMENT ( #234, #165, ( #8 ) ) ;
#6 = CC_DESIGN_PERSON_AND_ORGANIZATION_ASSIGNMENT ( #55, #75, ( #281 ) ) ;
#7 = PERSON_AND_ORGANIZATION ( #98, #69 ) ;
#8 = SECURITY_CLASSIFICATION ( '', '', #155 ) ;
#9 = COORDINATED_UNIVERSAL_TIME_OFFSET ( 1, 0, .AHEAD. ) ;
#10 = ORIENTED_EDGE ( 'NONE', *, *, #231, .T. ) ;
#11 = EDGE_LOOP ( 'NONE', ( #222, #164, #189, #103 ) ) ;
#12 = COORDINATED_UNIVERSAL_TIME_OFFSET ( 1, 0, .AHEAD. ) ;
#13 = VERTEX_POINT ( 'NONE', #46 ) ;
#14 = TOROIDAL_SURFACE ( 'NONE', #185, 2.799999999999999822, 0.2000000000000000111 ) ;
#15 = ORIENTED_EDGE ( 'NONE', *, *, #198, .F. ) ;
#16 = CIRCLE ( 'NONE', #101, 2.600000000000000089 ) ;
#17 = EDGE_LOOP ( 'NONE', ( #104, #137 ) ) ;
#18 = DIRECTION ( 'NONE',  ( 1.000000000000000000, 0.000000000000000000, 0.000000000000000000 ) ) ;
#19 = DIRECTION ( 'NONE',  ( 1.000000000000000000, 0.000000000000000000, -0.000000000000000000 ) ) ;
#20 = AXIS2_PLACEMENT_3D ( 'NONE', #287, #70, #242 ) ;
#21 = FACE_OUTER_BOUND ( 'NONE', #139, .T. ) ;
#22 = CARTESIAN_POINT ( 'NONE',  ( 0.000000000000000000, 0.000000000000000000, 0.000000000000000000 ) ) ;
#23 = CC_DESIGN_APPROVAL ( #113, ( #281 ) ) ;
#24 = CARTESIAN_POINT ( 'NONE',  ( 0.000000000000000000, 0.000000000000000000, 3.000000000000000000 ) ) ;
#25 = ADVANCED_FACE ( 'NONE', ( #267 ), #44, .T. ) ;
#26 = DIRECTION ( 'NONE',  ( 1.000000000000000000, 0.000000000000000000, 0.000000000000000000 ) ) ;
#27 = CYLINDRICAL_SURFACE ( 'NONE', #53, 5.000000000000000000 ) ;
#28 = DIRECTION ( 'NONE',  ( 0.000000000000000000, 0.000000000000000000, 1.000000000000000000 ) ) ;
#29 = CARTESIAN_POINT ( 'NONE',  ( 2.799999999999999822, 0.000000000000000000, 2.999999999999990674 ) ) ;
#30 = ADVANCED_FACE ( 'NONE', ( #119, #199 ), #145, .T. ) ;
#31 = MANIFOLD_SOLID_BREP ( 'Zaoblit1', #180 ) ;
#32 = ADVANCED_FACE ( 'NONE', ( #21 ), #14, .F. ) ;
#33 = APPROVAL_ROLE ( '' ) ;
#34 = ORIENTED_EDGE ( 'NONE', *, *, #187, .T. ) ;
#35 = VECTOR ( 'NONE', #138, 1000.000000000000000 ) ;
#36 = LOCAL_TIME ( 12, 16, 43.00000000000000000, #259 ) ;
#37 = VERTEX_POINT ( 'NONE', #240 ) ;
#38 = VERTEX_POINT ( 'NONE', #220 ) ;
#39 = DIRECTION ( 'NONE',  ( 0.000000000000000000, 0.000000000000000000, 1.000000000000000000 ) ) ;
#40 = CARTESIAN_POINT ( 'NONE',  ( -2.600000000000000089, 0.000000000000000000, 803.0000000000000000 ) ) ;
#41 = ORIENTED_EDGE ( 'NONE', *, *, #217, .T. ) ;
#42 = CARTESIAN_POINT ( 'NONE',  ( 0.000000000000000000, 0.000000000000000000, 803.0000000000000000 ) ) ;
#43 = ORIENTED_EDGE ( 'NONE', *, *, #272, .F. ) ;
#44 = CYLINDRICAL_SURFACE ( 'NONE', #283, 5.000000000000000000 ) ;
#45 = AXIS2_PLACEMENT_3D ( 'NONE', #244, #122, #18 ) ;
#46 = CARTESIAN_POINT ( 'NONE',  ( -2.600000000000000089, 0.000000000000000000, 3.199999999999980638 ) ) ;
#47 = DIRECTION ( 'NONE',  ( 1.000000000000000000, 0.000000000000000000, 0.000000000000000000 ) ) ;
#48 = DIRECTION ( 'NONE',  ( 0.000000000000000000, 0.000000000000000000, 1.000000000000000000 ) ) ;
#49 = PRODUCT_DEFINITION_SHAPE ( 'NONE', 'NONE',  #3 ) ;
#50 = CARTESIAN_POINT ( 'NONE',  ( 0.000000000000000000, 0.000000000000000000, 3.199999999999980638 ) ) ;
#51 = EDGE_CURVE ( 'NONE', #211, #142, #82, .T. ) ;
#52 = DIRECTION ( 'NONE',  ( 0.000000000000000000, 0.000000000000000000, 1.000000000000000000 ) ) ;
#53 = AXIS2_PLACEMENT_3D ( 'NONE', #170, #225, #89 ) ;
#54 = APPROVAL ( #108, 'NEURÈENÝ' ) ;
#55 = PERSON_AND_ORGANIZATION ( #98, #69 ) ;
#56 = ADVANCED_FACE ( 'NONE', ( #305 ), #307, .T. ) ;
#57 = AXIS2_PLACEMENT_3D ( 'NONE', #228, #88, #109 ) ;
#58 = ORIENTED_EDGE ( 'NONE', *, *, #198, .T. ) ;
#59 = CC_DESIGN_PERSON_AND_ORGANIZATION_ASSIGNMENT ( #205, #255, ( #102 ) ) ;
#60 = EDGE_LOOP ( 'NONE', ( #4, #219, #100, #64 ) ) ;
#61 = AXIS2_PLACEMENT_3D ( 'NONE', #151, #28, #271 ) ;
#62 = CARTESIAN_POINT ( 'NONE',  ( 0.000000000000000000, 0.000000000000000000, 0.000000000000000000 ) ) ;
#63 = EDGE_CURVE ( 'NONE', #142, #211, #257, .T. ) ;
#64 = ORIENTED_EDGE ( 'NONE', *, *, #131, .F. ) ;
#65 = CALENDAR_DATE ( 2022, 7, 7 ) ;
#66 = DIRECTION ( 'NONE',  ( 0.000000000000000000, 0.000000000000000000, -1.000000000000000000 ) ) ;
#67 = LINE ( 'NONE', #176, #186 ) ;
#68 = DIRECTION ( 'NONE',  ( -0.000000000000000000, -0.000000000000000000, -1.000000000000000000 ) ) ;
#69 = ORGANIZATION ( 'NEURÈENÝ', 'NEURÈENÝ', '' ) ;
#70 = DIRECTION ( 'NONE',  ( -0.000000000000000000, -0.000000000000000000, -1.000000000000000000 ) ) ;
#71 = APPROVAL_PERSON_ORGANIZATION ( #7, #113, #206 ) ;
#72 = DIRECTION ( 'NONE',  ( 1.000000000000000000, 0.000000000000000000, -0.000000000000000000 ) ) ;
#73 = CARTESIAN_POINT ( 'NONE',  ( 2.799999999999999822, 0.000000000000000000, 3.199999999999980638 ) ) ;
#74 = LINE ( 'NONE', #215, #127 ) ;
#75 = PERSON_AND_ORGANIZATION_ROLE ( 'creator' ) ;
#76 = DATE_TIME_ROLE ( 'creation_date' ) ;
#77 = PERSON_AND_ORGANIZATION_ROLE ( 'creator' ) ;
#78 = ORIENTED_EDGE ( 'NONE', *, *, #272, .T. ) ;
#79 = EDGE_LOOP ( 'NONE', ( #10, #258 ) ) ;
#80 = VERTEX_POINT ( 'NONE', #84 ) ;
#81 = EDGE_LOOP ( 'NONE', ( #163, #78, #34, #15 ) ) ;
#82 = CIRCLE ( 'NONE', #273, 5.000000000000000000 ) ;
#83 = DIRECTION ( 'NONE',  ( 0.000000000000000000, 0.000000000000000000, 1.000000000000000000 ) ) ;
#84 = CARTESIAN_POINT ( 'NONE',  ( -2.799999999999999822, 3.429011037612589276E-16, 2.999999999999990674 ) ) ;
#85 = DIRECTION ( 'NONE',  ( 1.000000000000000000, 0.000000000000000000, 0.000000000000000000 ) ) ;
#86 = CARTESIAN_POINT ( 'NONE',  ( 0.000000000000000000, 0.000000000000000000, 3.199999999999980638 ) ) ;
#87 = DIRECTION ( 'NONE',  ( -1.000000000000000000, 0.000000000000000000, 0.000000000000000000 ) ) ;
#88 = DIRECTION ( 'NONE',  ( -0.000000000000000000, -0.000000000000000000, -1.000000000000000000 ) ) ;
#89 = DIRECTION ( 'NONE',  ( -1.000000000000000000, 0.000000000000000000, 0.000000000000000000 ) ) ;
#90 = EDGE_CURVE ( 'NONE', #80, #173, #241, .T. ) ;
#91 = DIRECTION ( 'NONE',  ( -0.000000000000000000, -0.000000000000000000, -1.000000000000000000 ) ) ;
#92 = COORDINATED_UNIVERSAL_TIME_OFFSET ( 1, 0, .AHEAD. ) ;
#93 = AXIS2_PLACEMENT_3D ( 'NONE', #107, #48, #150 ) ;
#94 = EDGE_CURVE ( 'NONE', #235, #142, #288, .T. ) ;
#95 = APPROVAL_DATE_TIME ( #229, #207 ) ;
#96 = DATE_AND_TIME ( #295, #128 ) ;
#97 = CC_DESIGN_PERSON_AND_ORGANIZATION_ASSIGNMENT ( #214, #192, ( #8 ) ) ;
#98 = PERSON ( 'NEURÈENÝ', 'NEURÈENÝ', 'NEURÈENÝ', ('NEURÈENÝ'), ('NEURÈENÝ'), ('NEURÈENÝ') ) ;
#99 = EDGE_CURVE ( 'NONE', #266, #211, #67, .T. ) ;
#100 = ORIENTED_EDGE ( 'NONE', *, *, #231, .F. ) ;
#101 = AXIS2_PLACEMENT_3D ( 'NONE', #42, #39, #26 ) ;
#102 = PRODUCT ( '0cca', '0cca', '', ( #181 ) ) ;
#103 = ORIENTED_EDGE ( 'NONE', *, *, #51, .T. ) ;
#104 = ORIENTED_EDGE ( 'NONE', *, *, #51, .F. ) ;
#105 = ORIENTED_EDGE ( 'NONE', *, *, #252, .F. ) ;
#106 = EDGE_CURVE ( 'NONE', #266, #235, #224, .T. ) ;
#107 = CARTESIAN_POINT ( 'NONE',  ( 0.000000000000000000, 0.000000000000000000, 3.199999999999980638 ) ) ;
#108 = APPROVAL_STATUS ( 'not_yet_approved' ) ;
#109 = DIRECTION ( 'NONE',  ( -1.000000000000000000, 0.000000000000000000, 0.000000000000000000 ) ) ;
#110 = DIRECTION ( 'NONE',  ( 1.000000000000000000, 0.000000000000000000, 0.000000000000000000 ) ) ;
#111 = APPROVAL_DATE_TIME ( #167, #54 ) ;
#112 = AXIS2_PLACEMENT_3D ( 'NONE', #289, #196, #285 ) ;
#113 = APPROVAL ( #129, 'NEURÈENÝ' ) ;
#114 = DIRECTION ( 'NONE',  ( 0.000000000000000000, 0.000000000000000000, 1.000000000000000000 ) ) ;
#115 = DIRECTION ( 'NONE',  ( 0.000000000000000000, 0.000000000000000000, 1.000000000000000000 ) ) ;
#116 = DIRECTION ( 'NONE',  ( -1.000000000000000000, 0.000000000000000000, 0.000000000000000000 ) ) ;
#117 = FACE_OUTER_BOUND ( 'NONE', #148, .T. ) ;
#118 = AXIS2_PLACEMENT_3D ( 'NONE', #24, #269, #47 ) ;
#119 = FACE_BOUND ( 'NONE', #79, .T. ) ;
#120 = CARTESIAN_POINT ( 'NONE',  ( -5.000000000000000000, 0.000000000000000000, 3.000000000000000000 ) ) ;
#121 = CARTESIAN_POINT ( 'NONE',  ( 5.000000000000000000, 6.123233995736766282E-16, 0.000000000000000000 ) ) ;
#122 = DIRECTION ( 'NONE',  ( 0.000000000000000000, 0.000000000000000000, 1.000000000000000000 ) ) ;
#123 = DESIGN_CONTEXT ( 'detailed design', #172, 'design' ) ;
#124 = DIRECTION ( 'NONE',  ( 1.000000000000000000, 0.000000000000000000, 0.000000000000000000 ) ) ;
#125 = ADVANCED_FACE ( 'NONE', ( #243 ), #27, .T. ) ;
#126 = APPROVAL_DATE_TIME ( #96, #113 ) ;
#127 = VECTOR ( 'NONE', #91, 1000.000000000000000 ) ;
#128 = LOCAL_TIME ( 12, 16, 43.00000000000000000, #232 ) ;
#129 = APPROVAL_STATUS ( 'not_yet_approved' ) ;
#130 = VERTEX_POINT ( 'NONE', #201 ) ;
#131 = EDGE_CURVE ( 'NONE', #37, #173, #171, .T. ) ;
#132 = CALENDAR_DATE ( 2022, 7, 7 ) ;
#133 = LOCAL_TIME ( 12, 16, 43.00000000000000000, #12 ) ;
#134 = ORIENTED_EDGE ( 'NONE', *, *, #217, .F. ) ;
#135 = APPLICATION_CONTEXT ( 'configuration controlled 3d designs of mechanical parts and assemblies' ) ;
#136 = ADVANCED_FACE ( 'NONE', ( #169 ), #265, .T. ) ;
#137 = ORIENTED_EDGE ( 'NONE', *, *, #63, .F. ) ;
#138 = DIRECTION ( 'NONE',  ( -0.000000000000000000, -0.000000000000000000, -1.000000000000000000 ) ) ;
#139 = EDGE_LOOP ( 'NONE', ( #105, #191, #197, #158 ) ) ;
#140 = AXIS2_PLACEMENT_3D ( 'NONE', #264, #168, #291 ) ;
#141 = DIRECTION ( 'NONE',  ( 0.000000000000000000, 0.000000000000000000, 1.000000000000000000 ) ) ;
#142 = VERTEX_POINT ( 'NONE', #121 ) ;
#143 = DIRECTION ( 'NONE',  ( 1.224646799147353207E-16, 1.000000000000000000, -0.000000000000000000 ) ) ;
#144 = CARTESIAN_POINT ( 'NONE',  ( 0.000000000000000000, 0.000000000000000000, 3.000000000000000000 ) ) ;
#145 = PLANE ( 'NONE',  #251 ) ;
#146 = CIRCLE ( 'NONE', #45, 2.600000000000000089 ) ;
#147 = CC_DESIGN_APPROVAL ( #54, ( #8 ) ) ;
#148 = EDGE_LOOP ( 'NONE', ( #43, #300, #58, #233 ) ) ;
#149 = CARTESIAN_POINT ( 'NONE',  ( 5.000000000000000000, 6.123233995736766282E-16, 3.000000000000000000 ) ) ;
#150 = DIRECTION ( 'NONE',  ( 1.000000000000000000, 0.000000000000000000, 0.000000000000000000 ) ) ;
#151 = CARTESIAN_POINT ( 'NONE',  ( 0.000000000000000000, 0.000000000000000000, 803.0000000000000000 ) ) ;
#152 = CYLINDRICAL_SURFACE ( 'NONE', #57, 2.600000000000000089 ) ;
#153 = TOROIDAL_SURFACE ( 'NONE', #93, 2.799999999999999822, 0.2000000000000000111 ) ;
#154 = APPLICATION_PROTOCOL_DEFINITION ( 'international standard', 'config_control_design', 1994, #172 ) ;
#155 = SECURITY_CLASSIFICATION_LEVEL ( 'unclassified' ) ;
#156 = CALENDAR_DATE ( 2022, 7, 7 ) ;
#157 = APPROVAL_STATUS ( 'not_yet_approved' ) ;
#158 = ORIENTED_EDGE ( 'NONE', *, *, #90, .F. ) ;
#159 = ORIENTED_EDGE ( 'NONE', *, *, #292, .T. ) ;
#160 = AXIS2_PLACEMENT_3D ( 'NONE', #50, #245, #294 ) ;
#161 = APPROVAL_ROLE ( '' ) ;
#162 = EDGE_CURVE ( 'NONE', #13, #37, #277, .T. ) ;
#163 = ORIENTED_EDGE ( 'NONE', *, *, #292, .F. ) ;
#164 = ORIENTED_EDGE ( 'NONE', *, *, #106, .F. ) ;
#165 = DATE_TIME_ROLE ( 'classification_date' ) ;
#166 = APPLICATION_PROTOCOL_DEFINITION ( 'international standard', 'config_control_design', 1994, #135 ) ;
#167 = DATE_AND_TIME ( #65, #133 ) ;
#168 = DIRECTION ( 'NONE',  ( -0.000000000000000000, -0.000000000000000000, -1.000000000000000000 ) ) ;
#169 = FACE_OUTER_BOUND ( 'NONE', #302, .T. ) ;
#170 = CARTESIAN_POINT ( 'NONE',  ( 0.000000000000000000, 0.000000000000000000, 3.000000000000000000 ) ) ;
#171 = CIRCLE ( 'NONE', #286, 0.2000000000000000944 ) ;
#172 = APPLICATION_CONTEXT ( 'configuration controlled 3d designs of mechanical parts and assemblies' ) ;
#173 = VERTEX_POINT ( 'NONE', #29 ) ;
#174 = AXIS2_PLACEMENT_3D ( 'NONE', #62, #141, #124 ) ;
#175 = ADVANCED_FACE ( 'NONE', ( #117 ), #152, .T. ) ;
#176 = CARTESIAN_POINT ( 'NONE',  ( -5.000000000000000000, 0.000000000000000000, 3.000000000000000000 ) ) ;
#177 = DIRECTION ( 'NONE',  ( -1.000000000000000000, 1.224646799147353207E-16, 0.000000000000000000 ) ) ;
#178 = DIRECTION ( 'NONE',  ( -0.000000000000000000, -0.000000000000000000, -1.000000000000000000 ) ) ;
#179 =( LENGTH_UNIT ( ) NAMED_UNIT ( * ) SI_UNIT ( .MILLI., .METRE. ) );
#180 = CLOSED_SHELL ( 'NONE', ( #247, #56, #125, #25, #30, #282, #175, #136, #32 ) ) ;
#181 = MECHANICAL_CONTEXT ( 'NONE', #135, 'mechanical' ) ;
#182 = CIRCLE ( 'NONE', #248, 2.600000000000000089 ) ;
#183 = PERSON_AND_ORGANIZATION ( #98, #69 ) ;
#184 = CALENDAR_DATE ( 2022, 7, 7 ) ;
#185 = AXIS2_PLACEMENT_3D ( 'NONE', #86, #114, #110 ) ;
#186 = VECTOR ( 'NONE', #68, 1000.000000000000000 ) ;
#187 = EDGE_CURVE ( 'NONE', #37, #13, #182, .T. ) ;
#188 = LOCAL_TIME ( 12, 16, 43.00000000000000000, #92 ) ;
#189 = ORIENTED_EDGE ( 'NONE', *, *, #99, .T. ) ;
#190 = CC_DESIGN_APPROVAL ( #207, ( #3 ) ) ;
#191 = ORIENTED_EDGE ( 'NONE', *, *, #187, .F. ) ;
#192 = PERSON_AND_ORGANIZATION_ROLE ( 'classification_officer' ) ;
#193 = DIRECTION ( 'NONE',  ( 0.000000000000000000, 0.000000000000000000, 1.000000000000000000 ) ) ;
#194 = ORIENTED_EDGE ( 'NONE', *, *, #94, .T. ) ;
#195 = DIRECTION ( 'NONE',  ( 0.000000000000000000, -1.000000000000000000, 0.000000000000000000 ) ) ;
#196 = DIRECTION ( 'NONE',  ( 0.000000000000000000, 0.000000000000000000, 1.000000000000000000 ) ) ;
#197 = ORIENTED_EDGE ( 'NONE', *, *, #131, .T. ) ;
#198 = EDGE_CURVE ( 'NONE', #130, #13, #2, .T. ) ;
#199 = FACE_OUTER_BOUND ( 'NONE', #280, .T. ) ;
#200 = CARTESIAN_POINT ( 'NONE',  ( 0.000000000000000000, 0.000000000000000000, 3.000000000000000000 ) ) ;
#201 = CARTESIAN_POINT ( 'NONE',  ( -2.600000000000000089, 0.000000000000000000, 803.0000000000000000 ) ) ;
#202 = FACE_OUTER_BOUND ( 'NONE', #60, .T. ) ;
#203 = DATE_AND_TIME ( #156, #188 ) ;
#204 = CIRCLE ( 'NONE', #230, 5.000000000000000000 ) ;
#205 = PERSON_AND_ORGANIZATION ( #98, #69 ) ;
#206 = APPROVAL_ROLE ( '' ) ;
#207 = APPROVAL ( #157, 'NEURÈENÝ' ) ;
#208 = PERSON_AND_ORGANIZATION ( #98, #69 ) ;
#209 = ORIENTED_EDGE ( 'NONE', *, *, #99, .F. ) ;
#210 = EDGE_CURVE ( 'NONE', #130, #38, #16, .T. ) ;
#211 = VERTEX_POINT ( 'NONE', #274 ) ;
#212 = EDGE_LOOP ( 'NONE', ( #134, #194, #299, #209 ) ) ;
#213 = CIRCLE ( 'NONE', #140, 2.799999999999999822 ) ;
#214 = PERSON_AND_ORGANIZATION ( #98, #69 ) ;
#215 = CARTESIAN_POINT ( 'NONE',  ( 2.600000000000000089, 3.184081677783118191E-16, 803.0000000000000000 ) ) ;
#216 = ORIENTED_EDGE ( 'NONE', *, *, #210, .T. ) ;
#217 = EDGE_CURVE ( 'NONE', #235, #266, #204, .T. ) ;
#218 =( NAMED_UNIT ( * ) PLANE_ANGLE_UNIT ( ) SI_UNIT ( $, .RADIAN. ) );
#219 = ORIENTED_EDGE ( 'NONE', *, *, #252, .T. ) ;
#220 = CARTESIAN_POINT ( 'NONE',  ( 2.600000000000000089, 3.184081677783118191E-16, 803.0000000000000000 ) ) ;
#221 = DIRECTION ( 'NONE',  ( 0.000000000000000000, 0.000000000000000000, 1.000000000000000000 ) ) ;
#222 = ORIENTED_EDGE ( 'NONE', *, *, #94, .F. ) ;
#223 = CARTESIAN_POINT ( 'NONE',  ( 0.000000000000000000, 0.000000000000000000, 0.000000000000000000 ) ) ;
#224 = CIRCLE ( 'NONE', #118, 5.000000000000000000 ) ;
#225 = DIRECTION ( 'NONE',  ( -0.000000000000000000, -0.000000000000000000, -1.000000000000000000 ) ) ;
#226 = DIRECTION ( 'NONE',  ( 1.000000000000000000, 0.000000000000000000, 0.000000000000000000 ) ) ;
#227 = APPROVAL_PERSON_ORGANIZATION ( #208, #207, #33 ) ;
#228 = CARTESIAN_POINT ( 'NONE',  ( 0.000000000000000000, 0.000000000000000000, 803.0000000000000000 ) ) ;
#229 = DATE_AND_TIME ( #184, #253 ) ;
#230 = AXIS2_PLACEMENT_3D ( 'NONE', #200, #52, #237 ) ;
#231 = EDGE_CURVE ( 'NONE', #173, #80, #213, .T. ) ;
#232 = COORDINATED_UNIVERSAL_TIME_OFFSET ( 1, 0, .AHEAD. ) ;
#233 = ORIENTED_EDGE ( 'NONE', *, *, #162, .T. ) ;
#234 = DATE_AND_TIME ( #132, #36 ) ;
#235 = VERTEX_POINT ( 'NONE', #246 ) ;
#236 = AXIS2_PLACEMENT_3D ( 'NONE', #223, #83, #72 ) ;
#237 = DIRECTION ( 'NONE',  ( 1.000000000000000000, 0.000000000000000000, 0.000000000000000000 ) ) ;
#238 = CARTESIAN_POINT ( 'NONE',  ( 0.000000000000000000, 0.000000000000000000, 3.000000000000000000 ) ) ;
#239 = PLANE ( 'NONE',  #236 ) ;
#240 = CARTESIAN_POINT ( 'NONE',  ( 2.600000000000000089, 3.184081677783118191E-16, 3.199999999999980638 ) ) ;
#241 = CIRCLE ( 'NONE', #20, 2.799999999999999822 ) ;
#242 = DIRECTION ( 'NONE',  ( 1.000000000000000000, 0.000000000000000000, 0.000000000000000000 ) ) ;
#243 = FACE_OUTER_BOUND ( 'NONE', #212, .T. ) ;
#244 = CARTESIAN_POINT ( 'NONE',  ( 0.000000000000000000, 0.000000000000000000, 803.0000000000000000 ) ) ;
#245 = DIRECTION ( 'NONE',  ( 0.000000000000000000, 0.000000000000000000, 1.000000000000000000 ) ) ;
#246 = CARTESIAN_POINT ( 'NONE',  ( 5.000000000000000000, 6.123233995736766282E-16, 3.000000000000000000 ) ) ;
#247 = ADVANCED_FACE ( 'NONE', ( #202 ), #153, .F. ) ;
#248 = AXIS2_PLACEMENT_3D ( 'NONE', #303, #193, #226 ) ;
#249 = UNCERTAINTY_MEASURE_WITH_UNIT (LENGTH_MEASURE( 1.000000000000000082E-05 ), #179, 'distance_accuracy_value', 'NONE');
#250 = CC_DESIGN_PERSON_AND_ORGANIZATION_ASSIGNMENT ( #183, #276, ( #281 ) ) ;
#251 = AXIS2_PLACEMENT_3D ( 'NONE', #238, #115, #19 ) ;
#252 = EDGE_CURVE ( 'NONE', #13, #80, #290, .T. ) ;
#253 = LOCAL_TIME ( 12, 16, 43.00000000000000000, #9 ) ;
#254 = ADVANCED_BREP_SHAPE_REPRESENTATION ( '0cca', ( #31, #174 ), #268 ) ;
#255 = PERSON_AND_ORGANIZATION_ROLE ( 'design_owner' ) ;
#256 = CC_DESIGN_DATE_AND_TIME_ASSIGNMENT ( #203, #76, ( #3 ) ) ;
#257 = CIRCLE ( 'NONE', #112, 5.000000000000000000 ) ;
#258 = ORIENTED_EDGE ( 'NONE', *, *, #90, .T. ) ;
#259 = COORDINATED_UNIVERSAL_TIME_OFFSET ( 1, 0, .AHEAD. ) ;
#260 = PERSON_AND_ORGANIZATION ( #98, #69 ) ;
#261 =( NAMED_UNIT ( * ) SI_UNIT ( $, .STERADIAN. ) SOLID_ANGLE_UNIT ( ) );
#262 = PRODUCT_RELATED_PRODUCT_CATEGORY ( 'detail', '', ( #102 ) ) ;
#263 = SHAPE_DEFINITION_REPRESENTATION ( #49, #254 ) ;
#264 = CARTESIAN_POINT ( 'NONE',  ( 0.000000000000000000, 0.000000000000000000, 3.000000000000000000 ) ) ;
#265 = PLANE ( 'NONE',  #61 ) ;
#266 = VERTEX_POINT ( 'NONE', #120 ) ;
#267 = FACE_OUTER_BOUND ( 'NONE', #11, .T. ) ;
#268 =( GEOMETRIC_REPRESENTATION_CONTEXT ( 3 ) GLOBAL_UNCERTAINTY_ASSIGNED_CONTEXT ( ( #249 ) ) GLOBAL_UNIT_ASSIGNED_CONTEXT ( ( #179, #218, #261 ) ) REPRESENTATION_CONTEXT ( 'NONE', 'WORKASPACE' ) );
#269 = DIRECTION ( 'NONE',  ( 0.000000000000000000, 0.000000000000000000, 1.000000000000000000 ) ) ;
#270 = CARTESIAN_POINT ( 'NONE',  ( -2.799999999999999822, 3.429011037612588783E-16, 3.199999999999980638 ) ) ;
#271 = DIRECTION ( 'NONE',  ( 1.000000000000000000, 0.000000000000000000, -0.000000000000000000 ) ) ;
#272 = EDGE_CURVE ( 'NONE', #38, #37, #74, .T. ) ;
#273 = AXIS2_PLACEMENT_3D ( 'NONE', #22, #221, #85 ) ;
#274 = CARTESIAN_POINT ( 'NONE',  ( -5.000000000000000000, 0.000000000000000000, 0.000000000000000000 ) ) ;
#275 = APPROVAL_PERSON_ORGANIZATION ( #260, #54, #161 ) ;
#276 = PERSON_AND_ORGANIZATION_ROLE ( 'design_supplier' ) ;
#277 = CIRCLE ( 'NONE', #160, 2.600000000000000089 ) ;
#278 = VECTOR ( 'NONE', #178, 1000.000000000000000 ) ;
#279 = AXIS2_PLACEMENT_3D ( 'NONE', #270, #143, #177 ) ;
#280 = EDGE_LOOP ( 'NONE', ( #301, #41 ) ) ;
#281 = PRODUCT_DEFINITION_FORMATION_WITH_SPECIFIED_SOURCE ( 'LIBOVOLNÝ', '', #102, .NOT_KNOWN. ) ;
#282 = ADVANCED_FACE ( 'NONE', ( #284 ), #239, .F. ) ;
#283 = AXIS2_PLACEMENT_3D ( 'NONE', #144, #1, #116 ) ;
#284 = FACE_OUTER_BOUND ( 'NONE', #17, .T. ) ;
#285 = DIRECTION ( 'NONE',  ( 1.000000000000000000, 0.000000000000000000, 0.000000000000000000 ) ) ;
#286 = AXIS2_PLACEMENT_3D ( 'NONE', #73, #195, #66 ) ;
#287 = CARTESIAN_POINT ( 'NONE',  ( 0.000000000000000000, 0.000000000000000000, 3.000000000000000000 ) ) ;
#288 = LINE ( 'NONE', #149, #278 ) ;
#289 = CARTESIAN_POINT ( 'NONE',  ( 0.000000000000000000, 0.000000000000000000, 0.000000000000000000 ) ) ;
#290 = CIRCLE ( 'NONE', #279, 0.2000000000000000944 ) ;
#291 = DIRECTION ( 'NONE',  ( 1.000000000000000000, 0.000000000000000000, 0.000000000000000000 ) ) ;
#292 = EDGE_CURVE ( 'NONE', #38, #130, #146, .T. ) ;
#293 = DIRECTION ( 'NONE',  ( -0.000000000000000000, -0.000000000000000000, -1.000000000000000000 ) ) ;
#294 = DIRECTION ( 'NONE',  ( 1.000000000000000000, 0.000000000000000000, 0.000000000000000000 ) ) ;
#295 = CALENDAR_DATE ( 2022, 7, 7 ) ;
#296 = AXIS2_PLACEMENT_3D ( 'NONE', #306, #293, #87 ) ;
#297 = PERSON_AND_ORGANIZATION ( #98, #69 ) ;
#298 = CC_DESIGN_SECURITY_CLASSIFICATION ( #8, ( #281 ) ) ;
#299 = ORIENTED_EDGE ( 'NONE', *, *, #63, .T. ) ;
#300 = ORIENTED_EDGE ( 'NONE', *, *, #210, .F. ) ;
#301 = ORIENTED_EDGE ( 'NONE', *, *, #106, .T. ) ;
#302 = EDGE_LOOP ( 'NONE', ( #216, #159 ) ) ;
#303 = CARTESIAN_POINT ( 'NONE',  ( 0.000000000000000000, 0.000000000000000000, 3.199999999999980638 ) ) ;
#304 = CC_DESIGN_PERSON_AND_ORGANIZATION_ASSIGNMENT ( #297, #77, ( #3 ) ) ;
#305 = FACE_OUTER_BOUND ( 'NONE', #81, .T. ) ;
#306 = CARTESIAN_POINT ( 'NONE',  ( 0.000000000000000000, 0.000000000000000000, 803.0000000000000000 ) ) ;
#307 = CYLINDRICAL_SURFACE ( 'NONE', #296, 2.600000000000000089 ) ;
ENDSEC;
END-ISO-10303-21;
